Ads

Stickerbrush Symphony (Donkey Kong Country 2) Guitar Tab

Submitted: Aug 05, 2009 by ChelseaRare (Last updated: Sep 26, 2009)

4.625
Average: 4.6 (16 votes)
Download | Listen
Game: Donkey Kong Country 2
Composer(s): Dave Wise
Style: Arrangement, Fingerstyle
Series: Donkey Kong

This song is also called Bramble Blast

AutoScroll: Slow | Medium | Fast
Stickerbrush Symphony  (Bramble Blast)
Donkey Kong Country 2: Diddy Kong's Quest
Composed by Dave Wise
Arranged by ChelseaRare



     E  E  E  E  Q    E  E     E  E  E  E  H           E  E  E  E  Q    E  E   
E||--L----------------------|-----------------------|-------------------------|
B||--------0-----1-------0--|--L-----1--------------|--------0-----1-------0--|
G||-----0-------------------|--------------0--------|-----0-------------------|
D||-------------------------|-----------------------|-------------------------|
A||--0--------0-------0-----|-----0-----0-----------|--0--------0-------0-----|
E||-------------------------|-----------------------|-------------------------|


  E  E  E  E  Q    E  E     E  E  E  E  Q    E  E     E  E  E  E  H         
-------------------3--3--|-------------------------|-----------------------|
--L-----1----------------|--------0-----1-------0--|--L-----1--------------|
--------------0----------|-----0-------------------|--------------0--------|
-------------------------|-------------------------|-----------------------|
-----0-----0-------------|-------------------------|-----------------------|
-------------------------|--1--------1-------1-----|-----1-----1-----------|


  E  E  E  E  Q    E  E     E  E  E  E  Q    E  E     E  E  E  E  Q    E  E   
-------------------------|-------------------0--0--|--L----------------------|
--------0-----1-------0--|--L-----1----------------|--------0-----1-------0--|
-----0-------------------|--------------0----------|-----0-------------------|
-------------------------|-------------------------|-------------------------|
-------------------------|-------------------------|--0--------0-------0-----|
--1--------1-------1-----|-----1-----1-------------|-------------------------|


  E  E  E  E  H           E  E  E  E  Q    E  E     E  E  E  E  Q    E  E   
-----------------------|-------------------------|-------------------3--3--|
--L-----1--------------|--------0-----1-------0--|--L-----1----------------|
--------------0--------|-----0-------------------|--------------0----------|
-----------------------|-------------------------|-------------------------|
-----0-----0-----------|--0--------0-------0-----|-----0-----0-------------|
-----------------------|-------------------------|-------------------------|


  E  E  E  E  Q    E  E     E  E  E  E  H           E  E  E  E  Q    E  E   
-------------------------|-----------------------|-------------------------|
--------0-----1-------0--|--L-----1--------------|--------0-----1-------0--|
-----0-------------------|--------------0--------|-----0-------------------|
-------------------------|-----------------------|-------------------------|
--3--------3-------3-----|-----3-----3-----------|--3--------3-------3-----|
-------------------------|-----------------------|-------------------------|


  E  E  E  E  Q    E  E       E  E  E  E  Q    E  E     E  E  E  E  E  E  Q     
-------------------0--0--||--------------------------|--------------------3----|
--L-----1----------------||---------0-----1-------0--|--L-----0-----1----------|
--------------0----------||*-----0-------------------|-------------------------|
-------------------------||*-------------------------|-------------------------|
-----3-----3-------------||---0--------0-------0-----|-----0-----0-----0-------|
-------------------------||--------------------------|-------------------------|


  E  E  E  E  E  E  Q       E  E  E  E  Q    E  E     E  E  E  E  E  E  Q     
--L-----------------3----|-------------------------|--------3-----5-----0----|
--------0-----1----------|--------0-----1-------0--|--L----------------------|
-----0-------------------|-----0-------------------|-------------------------|
-------------------------|-------------------------|-------------------------|
--0--------0-----0-------|-------------------------|-------------------------|
-------------------------|--1--------1-------1-----|-----1-----1-----1-------|


  E  E  E  E  E  E  Q         E  E  Q    Q    Q       H.           Q     
--L-----3-----5-----0-----||------------------3----|--3------------8----|
--------------------------||--------0----1---------|--1-----------------|
-----0-------------------*||-----0-----------------|--2------------9----|
-------------------------*||-----------------------|--------------------|
--------------------------||-----------------------|--0-----------------|
--1--------1-----1--------||--3--------------------|--------------------|


  Q    Q    Q    Q       E  E  E  E  E  E  E  E     E  E  E  E  E  E  E  E   
--7--------------5----|--------------0-----------|--------------0-----------|
-------8----5---------|--------1--------3--1--0--|--------0--------3--1--0--|
--7--------------5----|-----2-----2--------------|-----0-----0--------------|
-------9----5---------|--------------------------|--------------------------|
----------------------|--0-----------------------|--------------------------|
----------------------|--------------------------|--3-----------------------|


  Q    H        E  E     E  Q    E  Q    Q       E  E  H.            
--0-------------------|-----------------------|--------3------------|
--0----3--------3--3--|-----3-------3----3----|-----1--0------------|
--0----0--------0--0--|-----0-------0----0----|--2-----0------------|
-------0--------0--0--|-----0-------0----0----|---------------------|
----------------------|-----------------------|---------------------|
--1----3--------------|--3-------3------------|--------0------------|


  Q    Q.     Q.        Q    H        E  E     E  Q.     Q.     E   
--L----3------1------|----------------------|----------------------|
--L----0------0------|--5----3--------L--5--|--3--1------0------1--|
--L----0------0------|--0----0--------L-----|-----0----------------|
---------------------|----------------------|----------------------|
---------------------|-------0--------L-----|----------------------|
--L----0------0------|--0-------------------|-----3----------------|


  E  H.           E     E  Q.     Q    Q       Q.     Q    Q.      
-----5------------L--|--L--5----------------|--5------------------|
--L--5------------L--|--L---------5----3----|---------5----3------|
---------------------|--L-------------------|---------------------|
-----3------------L--|-----------------2----|---------------------|
---------------------|----------------------|---------------------|
---------------------|-----------------0----|---------------------|


  Q    Q    H           Q    Q.     Q.        Q    Q.     E   E  E   
-------3----3--------|--L----3------5------|--7----7------7s--8--7--|
--L----0----0--------|--L----0------0------|--0----0-------------0--|
-------0----0--------|--L----0------0------|--0----0----------------|
---------------------|---------------------|------------------------|
---------------------|---------------------|------------------------|
-------0----0--------|--L----0------0------|--0----5-------------5--|


  Q    Q.     Q    E     H        E  Q.        Q.     Q    Q.      
--L-----------0----5--|--L--------L---------|---------0----3------|
--L----8-----------5--|--L--------L--1------|--3------1----3------|
----------------------|---------------------|--------------0------|
-------------------3--|--L--------L--0------|---------------------|
----------------------|---------------------|---------------------|
--L-------------------|--------------1------|--------------0------|


  Q.     Q    Q.        Q.     Q    Q.        Q.     Q    Q.      
--L------------------|---------0----5------|--L------------------|
--L------1----0------|--1-----------5------|--L------1-----------|
--L-----------0------|---------------------|--------------2------|
--------------2------|--------------3------|--L-----------0------|
---------------------|---------------------|---------------------|
--L-----------0------|---------------------|--------------1------|


  Q.     Q    Q.        E  Q    Q.     Q       E  Q.      
--------------0------|--L--1----0-----------|------------|
--0------1----0------|--L-------0------3----|--L--1------|
---------------------|----------------------|------------|
---------------------|----------------------|------------|
---------------------|----------------------|------------|
--------------3------|--L-------3-----------|------------|


  E  E  E  E  Q    E  E     E  E  E  E  H           E  E  E  E  Q    E  E   
--0--L--L--L--L----L--L--|-----------------------|-------------------------|
--------0-----1-------0--|--L-----1--------------|--------0-----1-------0--|
-----0-------------------|--------------0--------|-----0-------------------|
-------------------------|-----------------------|-------------------------|
--0--------0-------0-----|-----0-----0-----------|--0--------0-------0-----|
-------------------------|-----------------------|-------------------------|


  E  E  E  E  Q    E  E     E  E  E  E  Q    E  E     E  E  E  E  H         
-------------------3--3--|-------------------------|-----------------------|
--L-----1----------------|--------0-----1-------0--|--L-----1--------------|
--------------0----------|-----0-------------------|--------------0--------|
-------------------------|-------------------------|-----------------------|
-----0-----0-------------|-------------------------|-----------------------|
-------------------------|--1--------1-------1-----|-----1-----1-----------|


  E  E  E  E  Q    E  E     E  E  E  E  Q    E  E     E  E  E  E  Q    E  E   
-------------------------|-------------------0--0--|--L----------------------|
--------0-----1-------0--|--L-----1----------------|--------0-----1-------0--|
-----0-------------------|--------------0----------|-----0-------------------|
-------------------------|-------------------------|-------------------------|
-------------------------|-------------------------|--0--------0-------0-----|
--1--------1-------1-----|-----1-----1-------------|-------------------------|


  E  E  E  E  H           E  E  E  E  Q    E  E     E  E  E  E  Q    E  E   
-----------------------|-------------------------|-------------------3--3--|
--L-----1--------------|--------0-----1-------0--|--L-----1----------------|
--------------0--------|-----0-------------------|--------------0----------|
-----------------------|-------------------------|-------------------------|
-----0-----0-----------|--0--------0-------0-----|-----0-----0-------------|
-----------------------|-------------------------|-------------------------|


  E  E  E  E  Q    E  E     E  E  E  E  H           E  E  E  E  Q    E  E   
-------------------------|-----------------------|-------------------------|
--------0-----1-------0--|--L-----1--------------|--------0-----1-------0--|
-----0-------------------|--------------0--------|-----0-------------------|
-------------------------|-----------------------|-------------------------|
--3--------3-------3-----|-----3-----3-----------|--3--------3-------3-----|
-------------------------|-----------------------|-------------------------|


  E  E  E  E  Q    Q       H        Q    E  E     Q    Q    Q    E  E   
-------------------0----|----------------------|-------0---------------|
--L-----1---------------|--3--------3-------3--|--L---------3----1--3--|
--------------0---------|----------------------|-----------------------|
------------------------|----------------------|-----------------------|
-----3-----3------------|----------------------|--------------------2--|
------------------------|--1-------------1--1--|--L---------1----------|


  Q    Q    Q    E  E     Q    Q    Q    E  E     H        Q    E  E   
-------0---------------|-------0---------------|----------------------|
--L---------3----1--3--|--L---------3----1--3--|--L--------3-------3--|
-----------------------|-----------------------|----------------------|
-----------------------|-----------------------|----------------------|
--L---------2-------2--|--L---------2----------|----------------------|
-----------------------|--------------------0--|--L-------------0--0--|


  Q    Q    Q    Q       H        E  E  Q       Q.     Q.      
-------0----3----0----|-----------0----------|----------------|
--L-------------------|--3-----------3--1----|--0------1------|
----------------------|--0--------------0----|----------------|
----------------------|----------------------|----------------|
----------------------|--0-------------------|----------------|
--L-------------------|-----------------3----|----------------|


  ^                                                                       
  H.           Q       E  Q.     Q     Q        E   Q      Q.      E  E   
--5------------5----|--L--------------(5)----|--L------------------------|
--5-----------------|-----5------3-----------|-----(5)----(3)------------|
--------------------|------------------------|---------------------0--0--|
--3-----------------|------------------------|---------------------------|
--------------------|------------------------|---------------------------|
--------------------|------------------------|---------------------------|


  Q    H.              Q.     Q.     Q       Q.     E   E  Q.      
--3----3------------|--3------5------7----|--7------7s--8--7------|
--------------------|---------------------|----------------0------|
--------------------|---------------------|-----------------------|
--------------------|---------------------|-----------------------|
--------------------|---------------------|-----------------------|
--0----0------------|--0------0------0----|--5-------------5------|


  Q    Q    H           Q.     Q.     Q       H.           Q     
-------0----5--------|----------------0----|--3-----------------|
--8---------5--------|--1------3------1----|--3------------1----|
---------------------|---------------------|--0-----------------|
------------3--------|--0------------------|--------------------|
---------------------|---------------------|--------------------|
---------------------|--1------------------|--0-----------------|


  Q.     Q.     Q       H.           Q       Q.     Q.     Q     
----------------0----|--5-----------------|---------------------|
--0------1-----------|--5------------1----|---------0------1----|
--0------------------|--------------------|--2------------------|
--2------------------|--3-----------------|--0------------------|
---------------------|--------------------|---------------------|
--0------------------|--------------------|--1------------------|


                                              ^                 
  H        Q    Q       Q    Q.     Q.        W                 
--0--------1----0----|--L------------------|--0----------------|
--0-------------0----|--L----3------1------|--1----------------|
---------------------|---------------------|-------------------|
---------------------|---------------------|--3----------------|
---------------------|---------------------|-------------------|
--3-------------3----|--L------------------|-------------------|


  Q.     Q.     Q       H.           Q       Q.     Q.     Q     
----------------0----|--3-----------------|----------------0----|
--1------3------1----|--3------------1----|--0------1-----------|
---------------------|--0-----------------|--0------------------|
---------------------|--------------------|--2------------------|
---------------------|--------------------|---------------------|
--1------------------|--0-----------------|--0------------------|


  H.           Q       Q.     Q.     Q       H        Q    Q     
--5-----------------|---------------------|--0--------1----0----|
---------------1----|---------0------1----|--0-------------0----|
--------------------|--2------------------|---------------------|
--3-----------------|--0------------------|---------------------|
--------------------|---------------------|---------------------|
--------------------|--1------------------|--3-------------3----|


                        ^                  
  Q    Q.     Q.        W                  
--L------------------|--0----------------||
--L----3------1------|--1----------------||
---------------------|--2----------------||
---------------------|-------------------||
---------------------|-------------------||
--L------------------|-------------------||



Duration Legend
---------------
W - whole
H - half
Q - quarter
E - 8th
. - note dotted


Tablature Legend
----------------
L - tied note
(n) - ghost note
s - legato slide
^ - brush up
Login or Register to remove this ad.

5 comments on Stickerbrush Symphony

this one's cool :)

4

this one's cool :)

I forgot to say this when I

5

I forgot to say this when I first viewed the tab way back when, but I REALLY like the beginning of it, chelsea :). Great job!

WOW

I completly love this song and chelsea like all of your vids especially the megaman X ones OMFG only chick that ive seen that has done that. IM in need of a song to be tabbed if you are willing to take the challenge Its from megamanX8 its called like Mega Man X8 OST, T17: Booster Forest ~ Ride Armor "CYCLOPS"

Don't know whether I'll try

Don't know whether I'll try to record this one but it's definitely quality.

Gee, I didn't realize how

5

Gee, I didn't realize how long this was. But this was amazing!