Jig Jib (Donkey Kong Country 2) Guitar Tab

Submitted: Aug 04, 2012 by JordanVS (Last updated: Aug 05, 2012)

5
Average: 5 (10 votes)
Download | Listen
Game: Donkey Kong Country 2
Composer(s): Dave Wise
Style: Arrangement, Fingerstyle
Series: Donkey Kong

This song is also called Mainbrace Mayhem

AutoScroll: Slow | Medium | Fast
Jig Jib                                   
Mainbrace Mayhem
Donkey Kong Country 2
David Wise
JordanVS

                                                     
*Capo on 2nd fret



6/8 
BPM=190


     H        E  S  S    Q    E  Q    E     E   E  E  Q    E   
E||-------------------|------------------|--------------------|
B||-------------------|--0-------0-------|--1p--0-----0-------|
G||--------------0h-2-|-------0-------0--|---------2-------0--|
D||-------------------|------------------|--------------------|
A||-------------------|------------------|--------------------|
E||-------------------|--3---------------|--3-----------------|


  E   E  E  Q    E     E   E  E  Q    S  S    Q    E  Q    E   
--------------------|----------------------|------------------|
--1p--0-----0-------|---------0------------|--0-------0-------|
---------2-------0--|--0h--2-----2----0h-2-|-------0-------0--|
--------------------|----------------------|------------------|
--------------------|----------------------|------------------|
--3-----------------|--3-------------------|--3---------------|


  E   E  E  Q    E     E  E  E  Q    E     E  E  E  Q.      
--------------------|--0----------------|--0--2--3--2------|
--1p--0-----0-------|-----3--1--3----0--|------------------|
---------2-------0--|-------------------|------------------|
--------------------|-------------------|------------------|
--------------------|-------------------|------------------|
--3-----------------|--3----------------|--3---------------|


  Q    E  E  E  E     Q    E    Q    E     Q    E  E  E  E   
-------3--3--2--0--|--2-------1g2-------|-------0--0--------|
--0----------------|-------3---------3--|-------------3--1--|
-------------------|--------------------|-------------------|
--2----------------|--------------------|-------------------|
-------------------|--2-----------------|--3----------------|
-------------------|--------------------|-------------------|


  Q    E   Q.        Q    E  E   E  E     Q    E  Q    E   
------------------|--------------------|------------------|
--0----1p--0------|--1----1--1p--0-----|--0-------0-------|
------------------|-----------------2--|-------0-------0--|
------------------|--------------------|--2---------------|
------------------|--0-----------------|------------------|
--3---------------|--------------------|------------------|


  Q    E   E  E   E     Q    E  Q    S  S    Q    E  Q    E   
---------------------|--------------------|------------------|
--0----1p--0---------|-------3--3---------|--0-------0-------|
--------------2p--0--|--2------------0h-2-|-------0-------0--|
---------------------|--0-----------------|------------------|
--3------------------|--------------------|------------------|
---------------------|--------------------|--3-------3-------|


  E   E  E  Q    E     E   E  E  Q    E     E   E  E  Q    S  S  
--------------------|--------------------|----------------------|
--1p--0-----0-------|--1p--0-----0-------|---------0------------|
---------2-------0--|---------2-------0--|--0h--2-----2----0h-2-|
--------------------|--------------------|------------0---------|
--3-----------------|--3-----------------|----------------------|
------------3-------|------------3-------|--0-------------------|


  Q    E  Q    E     E   E  E  Q    E     E  E  E  Q    E   
------------------|--------------------|--0----------------|
--0-------0-------|--1p--0-----0-------|-----3--1--3----0--|
-------0-------0--|---------2-------0--|-------------------|
------------------|--------------------|-------------------|
------------------|--3-----------------|--3----------------|
--3-------3-------|------------3-------|-----------3-------|


  E  E  E  Q    S  S    Q.     Q.                Q.     E  E  E   
--0--2--3--2----0h-2-|--3-------------|-------|------------------|
---------------------|--3-------------|-------|------------0--1--|
---------------------|--0-------------|-------|---------2--------|
-----------0---------|----------------|-------|------------------|
--3------------------|----------------|-------|--0------0--------|
---------------------|--3-------------|-------|------------------|


  Q    E  E  Q       Q    E  E  E  E     Q    E  Q.      
------------------|-------------------|-----------------|
--0---------------|-------------0--1--|--0----1--0------|
-------0----------|-------2--2--------|-----------------|
-------------2----|-------------------|-----------------|
------------------|--0-------0--------|-----------------|
--0-------0-------|-------------------|--0-------0------|


  Q.     E  E  E     Q    E  E  Q       Q    E  E  Q     
------------------|------------------|------------------|
------------0--1--|--0---------------|------------------|
---------2--------|-------0----------|--0----0-----0----|
------------------|-------------2----|------------------|
--0------0--------|------------------|------------------|
------------------|--0-------0-------|--1-------1-------|


                                               BPM=130

  Q.     Q    S S    Q.     E  E  E     Q.     E  E  S S  
------------------|------------------|-------------------|
------------------|---------------0--|-------------------|
--0---------------|--0---------2-----|--2------------0-2-|
--------------3-2-|------------------|--0----------------|
------------------|------------------|-------------------|
--1------1--------|--0------0--------|-------------------|


  ^                  ^                   ^                 
  Q    E  Q    E     E  E  E  Q    E     E  E  E  Q    E   
------------------|-------------------|-------------------|
--0-------0-------|--1--0-----0-------|--1--0-----0-------|
-------0-------0--|--0-----2-------0--|--0-----2-------0--|
--0-------0-------|--2--------0-------|--2--------0-------|
--2---------------|--3----------------|--3----------------|
--3-------3-------|-----------3-------|-----------3-------|


  ^                    ^                  ^                 
  E  E  E  Q    S S    Q    E  Q    E     E  E  E  Q    E   
--------------------|------------------|-------------------|
--------0-----------|--0-------0-------|--1--0-----0-------|
--0--2-----2----0-2-|-------0-------0--|--0-----2-------0--|
--2--------4--------|--0-------0-------|--2--------0-------|
--2--------5--------|--2---------------|--3----------------|
--0-----------------|--3-------3-------|-----------3-------|


  ^                   ^        ^         ^                 
  E  E  E  Q    E     E  E  E  Q.        Q    E  E  E  E   
--0----------------|--0--2--3--2------|-------3--3--2--0--|
-----3--1--3----0--|-----------3------|--0----------------|
--0----------------|--0--------2------|--0----------------|
--2--------0-------|--2--------0------|--2----------------|
--3----------------|--3---------------|--2----------------|
-----------3-------|------------------|--0----------------|


  ^                  ^                   ^               
  Q    E  Q    E     Q    E  E  E  E     Q    E  Q.      
--2-------2-------|-------0--0--------|-----------------|
--3----3-------3--|--1----------3--1--|--0----1--0------|
--4----L----------|--0----------L-----|--0--------------|
--4----L----------|--2----------L-----|--0--------------|
--2----L----------|--3----------L-----|--2--------------|
------------------|-------------------|--3--------------|


  ^                   ^                  ^                 
  Q    E  E  E  E     Q    E  Q    E     Q    E  E  E  E   
-------------------|------------------|-------------------|
--1----1--1--0-----|--0-------0-------|--0----1--0--------|
--2-------------2--|-------0-------0--|--0----------2--0--|
--2----------L-----|--2---------------|--2----------L-----|
--0----------L-----|--2---------------|--3----------L-----|
-------------------|--0---------------|-------------------|


  ^                
  Q    E  Q.       
-----------------||
-------3--3------||
--2--------------||
--4--------------||
--5--------------||
-----------------||




Duration Legend
---------------
W - whole
H - half
Q - quarter
E - 8th
S - 16th
. - note dotted


Tablature Legend
----------------
L - tied note
h - hammer on
p - pull off
^ - brush up
v - brush down
Login or Register to remove this ad.

1 comment on Jig Jib

Awesome, awesome tab. Great

Awesome, awesome arrangement. Great work!