In a Snow-Bound Land (Donkey Kong Country 2) Guitar Tab

Submitted: Oct 18, 2011 by JordanVS

5
Average: 5 (2 votes)
Download | Listen
Game: Donkey Kong Country 2
Composer(s): Dave Wise
Style: 2 or more instruments, Transcription
Series: Donkey Kong

This song is also called Clapper's Cavern

AutoScroll: Slow | Medium | Fast
In a Snow-Bound Land                               
David Wise

*For more Intruments Check GP file

Lead 



E||-------||--------|-------|-------|-------|-------|-------|-------|
B||-------||--------|-------|-------|-------|-------|-------|-------|
G||-------||*-------|-------|-------|-------|-------|-------|-------|
D||-------||*-------|-------|-------|-------|-------|-------|-------|
A||-------||--------|-------|-------|-------|-------|-------|-------|
E||-------||--------|-------|-------|-------|-------|-------|-------|


   Q     E   E   H           H         E.   E.   E      Q     E   H        E   
--17----18--17------------|-----------20---18---17--|--18----17---------------|
----------------18--------|--L----------------------|------------18--------L--|
--------------------------|-------------------------|-------------------------|
--------------------------|-------------------------|-------------------------|
--------------------------|-------------------------|-------------------------|
--------------------------|-------------------------|-------------------------|


  H.            E   E      Q     E   E   H           H.            E   E   
-----------------------|--17----18--17------------|-------------------15--|
--L------------18--20--|----------------18--------|--L------------18------|
-----------------------|--------------------------|-----------------------|
-----------------------|--------------------------|-----------------------|
-----------------------|--------------------------|-----------------------|
-----------------------|--------------------------|-----------------------|


   Q     E   Q.      E   E     W                    Q     E   Q.      E   E   
--17----18--17------18--15--|--L----------------|----------------------------|
----------------------------|-------------------|------------13------15--13--|
----------------------------|-------------------|--14----15------------------|
----------------------------|-------------------|----------------------------|
----------------------------|-------------------|----------------------------|
----------------------------|-------------------|----------------------------|


  H.           E   E      Q     E   Q.      E   E     H.            E   E   
----------------------|----------------------------|-----------------------|
--L-------------------|------------13------15------|---------------10--11--|
------------------15--|--14----15--------------10--|--L--------------------|
----------------------|----------------------------|-----------------------|
----------------------|----------------------------|-----------------------|
----------------------|----------------------------|-----------------------|


   E  E   E   Q.      E   E      E  E   E   Q.      E   E   
---------------------17--18--|--20-------------------------|
--13-------------------------|---------18--18--------------|
---------10--10--------------|---------------------14--15--|
-----------------------------|-----------------------------|
-----------------------------|-----------------------------|
-----------------------------|-----------------------------|


   Q     E   Q.      E   E     W                    W                 
----------------------------|-------------------|--18----------------|
--------------------15------|-------------------|--------------------|
--17--------17----------17--|--L----------------|--------------------|
--------17------------------|-------------------|--------------------|
----------------------------|-------------------|--------------------|
----------------------------|-------------------|--------------------|


   H.            E   E     W                    H         Q     Q     
--17----------------15--|--L----------------|------------15----17----|
----------------18------|-------------------|--13--------------------|
------------------------|-------------------|------------------------|
------------------------|-------------------|------------------------|
------------------------|-------------------|------------------------|
------------------------|-------------------|------------------------|


   W                    H.            E   E     W                 
--18----------------|--17------------15--13--|--L----------------|
--------------------|------------------------|-------------------|
--------------------|------------------------|-------------------|
--------------------|------------------------|-------------------|
--------------------|------------------------|-------------------|
--------------------|------------------------|-------------------|


  W                    W                    H.            E   E   
--L----------------|--18----------------|--17----------------15--|
-------------------|--------------------|----------------18------|
-------------------|--------------------|------------------------|
-------------------|--------------------|------------------------|
-------------------|--------------------|------------------------|
-------------------|--------------------|------------------------|


  W                    H         Q     Q        W                 
--L----------------|------------15----17----|--18----------------|
-------------------|--13--------------------|--------------------|
-------------------|------------------------|--------------------|
-------------------|------------------------|--------------------|
-------------------|------------------------|--------------------|
-------------------|------------------------|--------------------|


   H.            Q        Q.     H        E  99x
--17------------------|--20-------------------||
----------------18----|-----------------------||
----------------------|----------------------*||
----------------------|----------------------*||
----------------------|-----------------------||
----------------------|-----------------------||
Login or Register to remove this ad.