Ads

Hot-Head Bop (Donkey Kong Country 2) Guitar Tab

Submitted: Feb 21, 2012 by JordanVS

5
Average: 5 (6 votes)
Download | Listen
Game: Donkey Kong Country 2
Composer(s): Dave Wise
Style: Arrangement, Fingerstyle
Series: Donkey Kong

AutoScroll: Slow | Medium | Fast
Hot-Head Bop                                   
Lave Stage
Donkey Kong Country 2
David Wise





     S S Q    S S Q       S S Q    S S E  E  E  E     S S Q    S S Q     
E||--------------------|---------------------------|--------------------|
B||--------------------|---------------------------|--------------------|
G||--------------------|---------------------------|--------------------|
D||--------------------|---------------------------|--------------------|
A||--0-0------0-0------|--0-0------0-0-------------|--0-0------0-0------|
E||--------------------|------------------0--3--4--|--------------------|


  S S Q    S S E  E  E  E     E  E  E  E  E  E  E  E   
---------------------------|-----0-----3--------------|
---------------------------|--------3-----1--3--0--1--|
---------------------------|--2-----------------------|
---------------------------|--------------------------|
--0-0------0-0-------------|--0--------0--------------|
------------------0--3--4--|--------------------------|


  E  E  E  E  E  E  E  E     E  E  E  E  E  E  E  E   
-----0-----3--------------|-----0-----3--------------|
--------3-----1--3--0--1--|--------3-----1--3--0--1--|
--2-----------------------|--2-----------------------|
--------------------------|--------------------------|
--0--------0--------------|--0--------0--------------|
-----------------0--3--4--|--------------------------|


  E  E  E  E  E  E  E  E     E  E  E  S  E  Q.     S S  
-----0-----3--------------|----------------------------|
--------3-----1--3--0--1--|-----1--0--1p-0-------------|
--2-----------------------|-----------------2--------L-|
--------------------------|--------------------------L-|
--0--------0--------------|--0--------0----------------|
-----------------0--3--4--|----------------------------|


  E  E  E  S  E.  E  E  E     E  E  E  S S H        E   
---------------------------|---------------------------|
-----1--0--1S-3---1--0--1--|--0------------------------|
---------------------------|-----2--2--0-2-L-----------|
---------------------------|---------------------------|
--0--------0---------------|--0--------0---------------|
------------------0--3--4--|---------------------------|


  E  E  E  E  E  E  E  E     E  E  E  S  E  Q.     S S  
-----0-----3--------------|----------------------------|
--------3-----1--3--0--1--|-----1--0--1p-0-------------|
--2-----------------------|-----------------2--------L-|
--------------------------|----------------------------|
--0--------0--------------|--0--------0----------------|
-----------------0--3--4--|----------------------------|


  Q    E  E  E  E  E  E     E  E  E  S S H        E   
-------------------------|---------------------------|
--3----1-----0-----1-----|--0------------------------|
-------------------------|-----2--2--0-2-L-----------|
-------------------------|---------------------------|
--0-------0--------------|--0--------0---------------|
----------------0--3--4--|---------------------------|


  E  E  E  E  E  E  E  E     S S S S S S S S S S S S S S S S  
-----0-----3--------------|--0-----0-----0-----0-----1-----1-|
--------3-----1--3--0--1--|----1-----1-----1-----1-----1-----|
--2-----------------------|------2-----2-----2-----2-----2---|
--------------------------|----------------------------------|
--0--------0--------------|----------------------------------|
-----------------0--3--4--|----------------------------------|


  S S S S S S S S S S S S S S E     S S S S S S S S S S S S S S S S  
--3-----3-----3-----3-----3------|--0-----0-----0-----0-----1-----1-|
----1-----1-----1-----1-----1----|----1-----1-----1-----1-----1-----|
------2-----2-----2-----2-----2--|------2-----2-----2-----2-----2---|
---------------------------------|----------------------------------|
---------------------------------|----------------------------------|
---------------------------------|--1-----------1-------------------|


  S S S S S S S S S S S S S S E     S S S S S S S S S S S S S S S S  
--3-----3-----3-----3-----3------|--0-----0-----0-----0-----1-----1-|
----1-----1-----1-----1-----1----|----1-----1-----1-----1-----1-----|
------2-----2-----2-----2-----2--|------2-----2-----2-----2-----2---|
---------------------------------|----------------------------------|
---------------------------------|--0-----------0-------------------|
--3-----------3------------------|----------------------------------|


  S S S S S S S S S S S S S S E     S S S S S S S S S S S S S S S S  
--3-----3-----3-----3-----3------|--0-----0-----0-----0-----1-----1-|
----1-----1-----1-----1-----1----|----1-----1-----1-----1-----1-----|
------2-----2-----2-----2-----2--|------2-----2-----2-----2-----2---|
---------------------------------|----------------------------------|
--0-----------0------------------|----------------------------------|
---------------------------------|--1-----------1-------------------|


  S S S S S S S S S S S S S S E     S S Q    S S Q     
--3-----3-----3-----3-----3------|--------------------|
----1-----1-----1-----1-----1----|--------------------|
------2-----2-----2-----2-----2--|--------------------|
---------------------------------|--------------------|
---------------------------------|--0-0------0-0------|
--3-----------3------------------|--------------------|


  S S Q    S S E  E  E  E     S S Q    S S Q       S S Q    S S E  E  E  E   
---------------------------|--------------------|---------------------------|
---------------------------|--------------------|---------------------------|
---------------------------|--------------------|---------------------------|
---------------------------|--------------------|---------------------------|
--0-0------0-0-------------|--0-0------0-0------|--0-0------0-0----0--1--2--|
------------------0--3--4--|--------------------|---------------------------|


  E  E  E  E  E  E  E  E     E  E   E  E  E.  E.   E   
--0-----0--1--0-----0-----|---------------8-----------|
-----1-----------------1--|------------8------8-------|
-----------------2--------|-----9--10-------------10--|
--------------------------|---------------------------|
--3--------3--------------|---------------------------|
--------------------------|--8---------8--------------|


  Q     E   E  H        E     E  E   E  E  E.  E.   E   
---------------------------|---------------8-----------|
---------------------------|------------8------8-------|
--9------------------------|-----9--10-------------10--|
-------10--10--L-----------|---------------------------|
--8---------8--------------|--8---------8--------------|
---------------------------|---------------------------|


  Q     E  Q    Q    E     E  E   E  E  E.  E.   E      Q.     E  E  E  E  E   
------------------------|---------------8---8---10--|--10---------------------|
------------------------|------------8--------------|-------------3-----3-----|
--9----10--9----5-------|-----9--10-----------------|---0------------4-----4--|
--0--------0------------|--0---------0--------------|-------------------------|
------------------------|---------------------------|-------------------------|
------------------------|---------------------------|----------3--------------|


  E  E  E  E  E  E  E  E     E  E  E  E  E  E  E  E   
-----------0--------------|--0-----0--1--0-----0-----|
--3-----3-----3-----3-----|-----1-----------------1--|
-----4-----------4-----4--|-----------------2--------|
--------------------------|--0--------0--------------|
--------------------------|--------------------------|
--3--------3--------------|--------------------------|


  E  E   E  E  E.   E.  E     Q.     H        E     E  E   E  E  E.   E.  E   
---------------------------|---------------------|---------------------------|
------------8--8-----------|---------------------|------------8--8-----------|
-----9--10---------10---9--|--9------------------|-----9--10---------10---9--|
--0---------0--------------|---------------------|---------------------------|
---------------------------|--8------8-----------|--8---------8--------------|
---------------------------|---------------------|---------------------------|


  Q     E  Q    Q    E     E  E   E  E  E.   E.  E     Q.     H        E   
------------------------|---------------------------|---------------------|
------------------------|------------8--8-----------|---------------------|
--9----10--9----5-------|-----9--10---------10---9--|--7------------------|
--0--------0------------|--0---------0--------------|---------------------|
------------------------|---------------------------|--8------8-----------|
------------------------|---------------------------|---------------------|


                                                    ^       
  E  E  E  E   E  E  E  E     S S S E  S T T S Q    E  E    
---------------------------|-----------------0-3----3-----||
---------------------------|-------------0-3--------3-----||
-----7--7--9--10--9--7-----|--0-----0--3------------0-----||
---------------------------|----0-2------0----------------||
--8--------8---------------|--2-----3---------------------||
---------------------------|-------------------3----3-----||




Duration Legend
---------------
H - half
Q - quarter
E - 8th
S - 16th
T - 32nd


Tablature Legend
----------------
L - tied note
h - hammer on
S - shift slide
^ - brush up

Login or Register to remove this ad.

6 comments on Hot-Head Bop

Woah! I've never heard this

5

Woah! I've never heard this song before but the arrangement is really really awesome. Great job on this one

Thanks!

Thanks!

The second SSQs in measures 1

The second SSQs in measures 1 and 3 should be SSH cause currently the measures add up to 3 beats.

Thats the way i wrote on the

Thats the way i wrote on the Gp file,but i guess some error ocurred when i exported the text file =/

Great work as always!

5

Great work as always!

Thank you!

Thank you!