Ads

Forest Interlude (Donkey Kong Country 2) Guitar Tab

Submitted: Nov 17, 2012 by JordanVS

5
Average: 5 (7 votes)
Download | Listen
Game: Donkey Kong Country 2
Composer(s): Dave Wise
Style: Arrangement, Fingerstyle, Percussion
Series: Donkey Kong

AutoScroll: Slow | Medium | Fast
Forest Interlude                                 
Web Woods 
Donkey Kong Country 2: Diddy's Kong Quest 
David Wise
JordanVS

*Capo on the 1st fret

4/4 BPM:95

The Ghost Notes () represent the echo effect on some 
notes.You can play them with less strength or use a 
delay effect or simply ignore it =D 



     E  E  E  E  E  E  E  E     E  E  E  E  E  E  E  E   
E||--------------2--2-----0--|--------------2--2-----0--|
B||-----0--3--0--------3-----|-----0--3--0--------3-----|
G||--0-----------------------|--0-----------------------|
D||--------------------------|--------------------------|
A||--------------------------|--------------------------|
E||--3-----------------------|--0-----------------------|


  E  E  E  E  E  E  E  E     E  E  E  E  E  E  E  E   
--------------2--2-----0--|--------------2--2-----0--|
-----0--3--0--------3-----|-----0--3--0--------3-----|
--0-----------------------|--0-----------------------|
--------------------------|--------------------------|
--0-----------------------|--L-----------------------|
--------------------------|--------------------------|


  ^                          ^                        
  E  E  E  E  E  E  E  E     E  E  E  E  E  E  E  E   
--------------2--2-----0--|--------------2--2-----0--|
-----0--3--0--------3-----|-----0--3--0--------3-----|
--0-----------------------|--0-----------------------|
--0-----------------------|--0-----------------------|
--2-----------------------|--0-----------------------|
--3-----------------------|--0-----------------------|


  ^                                                      
  E  E  E  E  E  E  E  E     E  E  E  E  Q    S  S  S S  
--------------2--2-----0--|--------------2------------0-|
-----0--3--0--------3-----|-----0--3--0-------0h-2h-3---|
--0-----------------------|--0--------------------------|
--2-----------------------|-----------------------------|
--0-----------------------|--0--------------------------|
--------------------------|-----------------------------|


  ^                             ^                          
  E  E  E  Q    E  S  S  S S    E  E  E  E  E  E   E   E   
--2-----0------------------0-|--2-----0--------0h--2p--0--|
--3--------3-------0h-2h-3---|--3--------3----------------|
--4--------------------------|--4-------------------------|
--5--------------------------|----------------------------|
-----x----------x------------|--0--x--0-----0-------------|
--------3----------3---------|----------------------------|


  ^                               
           |--3--|                
  E  E  E  S  S  S E  E  S S S S  
--L------------------------------|
-----------0h-2p-0---------------|
--2----------------2-------------|
--2----------------------------2-|
--0--x--0----------0--x--0-2-4---|
---------------------------------|


                                                       ^                        
  S S S S  S   S   S   S   S   S   S   S  S  S  S S    E  E  E  E  E  Q    S S  
--------------------------------------------------0-|--2-----0---------------0-|
--0-----0---------(0)---------(0)---------0h-2h-3---|--3--------3----------3---|
------2-------(2)---------(2)---------(2)-----------|--4-----------------------|
----4-----(4)---------(4)---------(4)---------------|--5-----------------------|
----------------------------------------------------|-----x--------x-----------|
----------------------------------------------------|--------3--------3--------|


  ^                           ^                                 
                                                       |--3--|  
  E  E  E  E  E  Q    S  S    E  E  E.  T  T  E  E  E  S  S  S  
--2-----0-------------5h-7-|--5---------0h-2p-0----------------|
--3--------3---------------|--2------------------------0h-2p-0-|
--4------------------------|--2--------------------------------|
---------------------------|--2--------------------------------|
--0--x--0-----x--0---------|--0--x--0------------x--0----------|
---------------------------|-----------------------------------|


  Q    S  S S  S    S   S   S    S   S   S    S   S   
-----------------------------------------------------|
-------3p-2---(3)p-(2)-----(3)p-(2)-----(3)p-(2)-----|
--2---------2----------(2)----------(2)----------(2)-|
-----------------------------------------------------|
--0---------------------0----------------------------|
-----------------------------------------------------|


                                                         ^                     
  S S S S E  S E  Q.     S    E  S Q    E  S E  E  E     E  Q.     E  E  Q     
---------------------------|--------------------------|--0--------------------|
--3------------------------|--------------------------|--2--------------------|
----2----------------------|--------------------------|--2--------------------|
------2--------------------|--------------------------|--2--------------------|
--------4----x-------------|--x---------x-------------|--0--0------x--0--0----|
----------0----0--0------0-|-----0-0-------0-0--3--4--|-----------------------|


  E  S Q    E  S E  Q       E  S S E  S S E   S   S   E    S   S   
-------------------------|----------------------------------------|
-------------------------|-----0-0-3--0-3----(0)-(0)-(3)--(0)-(3)-|
-------------------------|----------------------------------------|
-------------------------|----------------------------------------|
--x--0-0----x--0-0--0----|----------------------------------------|
-------------------------|--0-------------0-----------0----3---4--|


  E   S   S   E    S   S  E  S S E  S S  
------------------------------------0---|
-----(0)-(0)-(3)--(0)-(3)-3--3-3-3----2-|
----------------------------------------|
----------------------------------------|
--0-----------------------0-------------|
----------------------------------------|


   E    S   S   E    S   S   E    S   S   E    S   S   
--------------------(0)-----------------------(0)-----|
--(3)--(3)-(3)-(3)------(2)-(3)--(3)-(3)-(3)------(2)-|
------------------------------------------------------|
------------------------------------------------------|
---0-------------------------0------------------------|
------------------------------------------------------|


  E  S S S S  S S  S    S   S   S    S   E.    
----------------5----------(5)----------(5)---|
-----------2h-3---(2)h-(3)-----(2)h-(3)-------|
---------2------------------------------------|
-------2--------------------------------------|
--0--4-------------0--------------------------|
----------------------------------------------|


  E  S S E  S S E   S   S   E    S   S   
------------0-2-----------------(0)-(2)-|
-----0-0-3---------(0)-(0)-(3)----------|
----------------------------------------|
----------------------------------------|
----------------------------------------|
--3-------------3-----------------------|


  E   S   S   E    S   S  E  S S E  S S    Q    E  E  Q    E  E   
------------------(0)-(2)-----------0---|------------------------|
-----(0)-(0)-(3)----------3--3-3-3----2-|-------3--2-------0-----|
----------------------------------------|---------------------2--|
----------------------------------------|------------------------|
----------------------------------------|--0----------0----------|
--0-----------------------0------0--3-4-|------------------------|


                                   ^                           
  Q     E    E   Q    S  S  S S    E  E  E  Q    E  S  S  S S  
------------------------------0-|--2-----0------------------0-|
-------(0)------------0h-2h-3---|--3--------3-------0h-2h-3---|
------------(2)-----------------|--4--------------------------|
--------------------------------|--5--------------------------|
--0--------------0--------------|-----x----------x------------|
--------------------------------|--------3----------3---------|


  ^                            ^                               
                                        |--3--|                
  E  E  E  E  E  E   E   E     E  E  E  S  S  S E  E  S S S S  
--2-----0--------0h--2p--0--|--L------------------------------|
--3--------3----------------|-----------0h-2p-0---------------|
--4-------------------------|--2----------------2-------------|
----------------------------|--2----------------------------2-|
--0--x--0-----0-------------|--0--x--0----------0--x--0-2-4---|
----------------------------|---------------------------------|


                                                       ^                        
  S S S S  S   S   S   S   S   S   S   S  S  S  S S    E  E  E  E  E  Q    S S  
--------------------------------------------------0-|--2-----0---------------0-|
--0-----0---------(0)---------(0)---------0h-2h-3---|--3--------3----------3---|
------2-------(2)---------(2)---------(2)-----------|--4-----------------------|
----4-----(4)---------(4)---------(4)---------------|--5-----------------------|
----------------------------------------------------|-----x--------x-----------|
----------------------------------------------------|--------3--------3--------|


  ^                           ^                                 
                                                       |--3--|  
  E  E  E  E  E  Q    S  S    E  E  E.  T  T  E  E  E  S  S  S  
--2-----0-------------5h-7-|--5---------0h-2p-0----------------|
--3--------3---------------|--2------------------------0h-2p-0-|
--4------------------------|--2--------------------------------|
---------------------------|--2--------------------------------|
--0--x--0-----x--0---------|--0--x--0------------x--0----------|
---------------------------|-----------------------------------|


  Q    S  S S  S    S   S   S    S   S   S    S   S   
-----------------------------------------------------|
-------3p-2---(3)p-(2)-----(3)p-(2)-----(3)p-(2)-----|
--2---------2----------(2)----------(2)----------(2)-|
-----------------------------------------------------|
--0--------------------------------------------------|
-----------------------------------------------------|


                             |--3--|  |--3--|  |--3--|  |--3--|   
  S S S S E  S E.  Q.        E  E  E  E  E  E  E  E  E  E  E  E   
--------------------------|-----------------------4-----------4--|
--3-----------------------|-----------------4--5--------4--5-----|
----2---------------------|--------------6-----------6-----------|
------2-------------------|-----------6--------------------------|
--------4-----------------|--4--6--7-----------------------------|
----------0--0-0---0------|--------------------------------------|


  |--3--|  |--3--|  |--3--|  |--3--|     |--3--|  |--3--|  |--3--|  |--3--|   
  E  E  E  E  E  E  E  E  E  E  E  E     E  E  E  E  E  E  E  E  E  E  E  E   
--------------------7--9--------7--9--|--------------------7--9--------7--9--|
-----------------9-----------9--------|-----------------9-----------9--------|
-----------6--9-----------9-----------|-----------6--8-----------8-----------|
-----6--9-----------------------------|-----6--9-----------------------------|
--7-----------------------------------|--6-----------------------------------|
--------------------------------------|--------------------------------------|


                                     ^                         
  S S S S S S S S S S S S S S S S    E  E  E  E  E  E  E  S S  
------------7-9-----7-9-----------|--4-----2--0---------------|
----------7-------7-----7---------|--5--------------------5-7-|
--------8-------8---------8-------|--6--------------------6---|
------9---------------------9-----|---------------------------|
----9-------------------------9---|-----x-----------x---------|
--7-----------------------------7-|--0-----0-----0-----0------|


  ^                           ^                          ^                      
  E  E  E  E  E  E  E  S S    Q    E   E  Q    E   E     H.           S S  S S  
--4-----2--0-----------0-2-|--4----5p--4-------2p--0--|--0-------------------0-|
--4------------------------|--4-----------------------|--2--------------2s-4---|
--5------------------------|--4-----------------------|--2---------------------|
---------------------------|--4-----------------------|------------------------|
-----x-----------x---------|--------------0-----------|--0------------0--------|
--4-----4-----0-----0------|--------------------------|------------------------|


  ^                         ^                                                
  Q     E  Q.     E  S S    Q    E  Q    E  E  E     E  E  E  E  E.  E.  E   
--2p----0--------------0-|--2----0-------0--2--2--|--L-----------2---3---2--|
--3--------3---------3---|--3-------3-------------|-----------3-------------|
--4----------------------|--4---------------------|--------4----------------|
--5----------------------|------------------------|-----4-------------------|
-------------------------|--2---------------------|--2----------------------|
------------------3------|------------------------|-------------------------|


  ^                  
  W                  
--0----------------||
--2----------------||
--2----------------||
--2----------------||
--0----------------||
-------------------||




Duration Legend
---------------
W - whole
H - half
Q - quarter
E - 8th
S - 16th
T - 32nd
. - note dotted
|-n-|  - n-tuplets


Tablature Legend
----------------
L - tied note
x - Percussion
(n) - ghost note
h - hammer on
p - pull off
s - legato slide
^ - brush up
v - brush down
Login or Register to remove this ad.

1 comment on Forest Interlude

wow what an awesome tab.

5

wow what an awesome tab. thank you for this, it's very fun to play. Great work!