Ads

Beneath the Canopy (Forest Interlude) (Donkey Kong Country 2) Guitar Tab

Submitted: Oct 15, 2010 by hslesperance (Last updated: Oct 16, 2010)

5
Average: 5 (6 votes)
Download | Listen
Game: Donkey Kong Country 2
Composer(s): Dave Wise
Style: 2 or more instruments, Arrangement, Transcription
Series: Donkey Kong

This song is also called Web Woods

AutoScroll: Slow | Medium | Fast
Beneath the Canopy (Forest Interlude)
Donkey Kong Country 2
Composed by David Wise
Arranged by Fishy
Tabbed by hslesperance
10/15/10

Standard Tuning


Guitar 1

Synthesizer(I think. Yeah, let's call it that. Or a guitar synth?)
e----------------------------------------------------------------
B---8------------------------------------------------------------
G------------------------------------9---------------------------
D----------------------------------------------------------------
A----------------------------------------------------------------
E----------------------------------------------------------------

e----------------------------------------------------------------
B---7------------------------------------------------------------
G----------------------------7------L\6--------------------------
D----------------------------------------------------------------
A----------------------------------------------------------------
E----------------------------------------------------------------

e----------------------------------------------------------------
B----------------------------------------------------------------
G----------------------------------------------------------------
D---9------------------------9------L/11-------------------------
A----------------------------------------------------------------
E----------------------------------------------------------------

Guitar
e----------------------------------------------------------------
B----------------------------------------------------------------
G------7-----7---------------7----7--9---------------------------
D---9-----9-----9-----------------------11----------------9--7---
A----------------------------------------------------------------
E----------------------------------------------------------------

e----------------------------------------------------------------
B------------7---------------------------------------------------
G------7--9-------------------7--7--7--9-------------------------
D---9-------------------------------------11---------------------
A----------------------------------------------------------------
E----------------------------------------------------------------

e----------------------------------------------------------------
B----------------------------------------------------------------
G--------7-9-11----9--7---------7-9-11----9--7----9--11--9-------
D---9-11-------------------9-11----------------------------------
A----------------------------------------------------------------
E----------------------------------------------------------------

e----------------------------------------------------------------
B----------------------------------------------------------------
G-------------------------------------7-9-11----9--7-------------
D---9--11p7--------------------7-9-11-----------------------9-11-
A----------------------------------------------------------------
E----------------------------------------------------------------

e-------------------------------------7-h9p7p5-------------------
B----------------------------------------------------------------
G---7-9-11----9--7----9--11--9--------------------7-h9p7p6-------
D----------------------------------------------------------------
A----------------------------------------------------------------
E----------------------------------------------------------------

e-------------------------------------7--------------------------
B---8h10h12--10p8p7------------7-8-10---10-8h10p8-7--------------
G--------------------------7-9----------------------9-7-7-6------
D-----------------------------------------------------------9-7--
A----------------------------------------------------------------
E----------------------------------------------------------------

e----------------------------------------------------------------
B----------------------------------------------------------------
G-------------------------------------------------------14-------
D-------------------------------------------------14-------14----
A---10-9----7-------------------------------12-------12----------
E--------10---9----------------7-9-5-----------12----------------

e---14----14b15----14b15rbr-12-------------15-14b15--14-12-------
B------12-------------------------14h16h17-----------------15-14-
G----------------------------------------------------------------
D----------------------------------------------------------------
A----------------------------------------------------------------
E----------------------------------------------------------------

e----------------------------------------------------------------
B---12-14-15-14h15p14p12----12-----------------------------------
G------------------------14----14-12h14--------------------------
D----------------------------------------------------------------
A----------------------------------------------------------------
E----------------------------------------------------------------


|e---------------------------------------------12-----------------|
|B---12--15--12-15---12------------15--15--15-----14--------------|
|G----------------------------------------------------------------|
|D----------------------------------------------------------------|
|A----------------------------------------------------------------|
|E----------------------------------------------------------------|
| Harmony                                                         |
|e---------------------------------14--14--14--15-12--------------|
|B----------------------------------------------------------------|
|G----------------------------------------------------------------|
|D----------------------------------------------------------------|
|A----------------------------------------------------------------|
|E----------------------------------------------------------------|


|e-------------------------------------------12-14----------------|
|B---12-h14p12p10--------------------12--15-----------------------|
|G----------------------------------------------------------------|
|D----------------------------------------------------------------|
|A----------------------------------------------------------------|
|E----------------------------------------------------------------|
|                                                                 |
|e---10-h12p10p9--------------------------------------------------|
|B----------------------------------------------------------------|
|G----------------------------------------------------------------|
|D----------------------------------------------------------------|
|A----------------------------------------------------------------|
|E----------------------------------------------------------------|


|e---------------12-----------------------------------------------|
|B---15--15--15-----14--------------------------------------------|
|G-----------------------------------------------------7-9-11-----|
|D------------------------------------------------9-11------------|
|A----------------------------------------------------------------|
|E----------------------------------------------------------------|
|                                                                 |
|e---14--14--14--15-12--------------------------------------------|
|B----------------------------------------------------------------|
|G----------------------------------------------------------------|
|D----------------------------------------------------------------|
|A----------------------------------------------------------------|
|E----------------------------------------------------------------|


e----------------------------------------------------------------
B----------------------------------------------------------------
G---9--7-------------7-9-11----9--7----9--11--9------------------
D---------------9-11-----------------------------------9-h11p9p7-
A----------------------------------------------------------------
E----------------------------------------------------------------

e----------------------------------------------------------------
B----------------------------------------------------------------
G--------7-9-11----9--7-------------7-9-11----9--7----9--11--9---
D---9-11-----------------------9-11------------------------------
A----------------------------------------------------------------
E----------------------------------------------------------------

e---19-h21p19p17-------------------------------------------------
B----------------------------------------------------------------
G----------------------19-h21p19p18------------------------------
D----------------------------------------------------------------
A----------------------------------------------------------------
E----------------------------------------------------------------

Strings
e----------------------------------------------------------------
B--------------------6-------------------------------------------
G---7--------------------------------------------------5---------
D-------------------------------------7--------------------------
A----------------------------------------------------------------
E----------------------------------------------------------------
Played with above measure
e----------------------------------------------------------------
B---6----------------6----------------5----------------5---------
G----------------------------------------------------------------
D----------------------------------------------------------------
A----------------------------------------------------------------
E----------------------------------------------------------------

e----------------------------------------------------------------
B-----------------6----------------5-----------------------------
G--------7-------------5----------------------------7--5---------
D---7---------------------7--------------------------------------
A----------------------------------------------------------------
E----------------------------------------------------------------

e------------------------------8----8----------------------------
B----------8-10--------------------------8--10----8--------------
G---7-9-10---------7--9--10-------------------------10-9-----10-9
D----------------------------------------------------------------
A----------------------------------------------------------------
E----------------------------------------------------------------

e----------------------------------------------------------------
B---6----------------6----------------5----------------5---------
G----------------------------------------------------------------
D----------------------------------------------------------------
A----------------------------------------------------------------
E----------------------------------------------------------------

e----------------------------------------------------------------
B---6----------------6----------------5----------------8--------8
G----------------------------------------------------------------
D----------------------------------------------------------------
A----------------------------------------------------------------
E----------------------------------------------------------------

Guitar - Really let the emotion flow here
e----------------------------------------------------------------
B----------------------------------------------------------------
G---12b14----12--10------10-12-10-12b14----12--10--------12b14---
D----------------------------------------------------------------
A----------------------------------------------------------------
E----------------------------------------------------------------

e----------------------------------------------------------------
B----------------------------------------------------------------
G---12--10---------------------------------11b12--------10-------
D-----------------12------------12--13--14------------------13---
A----------------------------------------------------------------
E----------------------------------------------------------------

e----------------------------------------------------------------
B------------------------------------------------------8/11--11--
G---11b12--------10------------10--12--10------------------------
D--------------------13------------------------------------------
A----------------------------------------------------------------
E----------------------------------------------------------------

Piano
e---------------1-8-13-8-------------------------------6-8-10-8--
B-------------1----------9-8-9--8--------------------------------   Is it just me or do these two
G---------0-1----------------10-8-10-8------------7-10-----------   measures look like a fish?
D-------3-------------------------12-10-12---8-10----------------
A-----3---------------------------------13-8---------------------   Wait a second... the arranger
E---1------------------------------------------------------------   of this song is named Fishy.
                                                             v
e---6--------------------------1-8-13-8--------------------------
B-----6-9--8-----------------1----------9-8-9---8----------------   Woah. That just blew my mind!
G-------10-8-10-8--------0-1----------------10--8--10--8-----7---
D------------12-10-----3---------------------------12--10----8---   I think I also just invented tab art.
A--------------------3-------------------------------------------   This tab kicks ass!
E------------------1-----------------------------------------6---


Wait, don't go. We're not finished yet.

Guitar 2

1:07
e----------------------------------------------------------------
B----------------7--7--------------------7--7--------------------
G----------7-----------7--9--------7-----------7--9--------------
D-------9-----9-----------------9-----9--------------------------
A---10-----------------------7-----------------------------------
E----------------------------------------------------------------

e----------------------------------------------------------------
B---------------7--7---------------------------------------------
G---------7-----------7--9--------------7--6---------------------
D---7--9-----9--------------7-----7--9--------9--7---------------
A------------------------------7---------------------------------
E----------------------------------------------------------------

e----------------------------------------------------------------
B----------------7--7--------------------7--7--------------------
G----------7-----------7--9--------7-----------7--9--------------
D-------9-----9-----------------9-----9--------------------------
A---10-----------------------7-----------------------------------
E----------------------------------------------------------------

e----------------------------------------------------------------
B---------------7--7---------------------------------------------
G---------7-----------7--9--------------7--6---------------------
D---7--9-----9--------------7-----7--9--------9--7---------------
A------------------------------7---------------------------------
E----------------------------------------------------------------

1:53
e-------------------------12-------------------------------------
B---------------------12------12---------------------------------
G------------------9--------------12--11--9----------------------
D--------------12----------------------------12--11--9-----------
A---10--9--10-------------------------------------------12-------
E----------------------------------------------------------------

e-----------------------------9----------------------------------
B---------------------10--12-----12--10--------------------------
G------------------9---------------------9--9--------------------
D-----------9--11------------------------------12--11--9---------
A-------12-------------------------------------------------------
E---12-----------------------------------------------------------

e-------------------------12-------------------------------------
B---------------------12------12---------------------------------
G------------------9--------------12--11--9----------------------
D--------------12----------------------------12--11--9-----------
A---10--9--10-------------------------------------------12-------
E----------------------------------------------------------------

e-----------------------------9----------------------------------
B---------------------10--12-----12--10--------------------------
G------------------9---------------------9--9--------------------
D-----------9--11------------------------------12--11--9---------
A-------12-------------------------------------------------------
E---12-----------------------------------------------------------

2:15
e----------------------------------------------------------------
B----------------7--7--------------------7--7--------------------
G----------7-----------7--9--------7-----------7--9--------------
D-------9-----9-----------------9-----9--------------------------
A---10-----------------------7-----------------------------------
E----------------------------------------------------------------

e----------------------------------------------------------------
B---------------7--7---------------------------------------------
G---------7-----------7--9--------------7--6---------------------
D---7--9-----9--------------7-----7--9--------9--7---------------
A------------------------------7---------------------------------
E----------------------------------------------------------------

e----------------------------------------------------------------
B----------------7--7--------------------7--7--------------------
G----------7-----------7--9--------7-----------7--9--------------
D-------9-----9-----------------9-----9--------------------------
A---10-----------------------7-----------------------------------
E----------------------------------------------------------------

e----------------------------------------------------------------
B---------------7--7---------------------------------------------
G---------7-----------7--9--------------7--6---------------------
D---7--9-----9--------------7-----7--9--------9--7---------------
A------------------------------7---------------------------------
E----------------------------------------------------------------

3:06
e----------------------------------------------------------------
B------------5--5-------------------6--6-------------------------
G------7-----------5--7-------5-----------5----------------------
D---7-----7----------------7-----7-----------7-------------------
A----------------------------------------------------------------
E----------------------------------------------------------------

e----------------------------------------------------------------
B-----------------------------------5--5-------------------------
G------------5--5-------------5-----------5--7-------------------
D------7-----------5--7----5-----5-------------------------------
A---7-----7------------------------------------------------------
E----------------------------------------------------------------

e----------------------------------------------------------------
B------------5--5-------------------6--6-------------------------
G------7-----------5--7-------5-----------5----------------------
D---7-----7----------------7-----7-----------7-------------------
A----------------------------------------------------------------
E----------------------------------------------------------------

e----------------------------------------------------------------
B-----------------------------------5--5-------------------------
G------------5--5-------------5-----------5--7-------------------
D------7-----------5--7----5-----5-------------------------------
A---7-----7------------------------------------------------------
E----------------------------------------------------------------

h - hammer on
p - pull off
/ - slide up
\ - slide down
b - bend
r - release
L - tied note
v - downstroke arpeggio
Login or Register to remove this ad.

4 comments on Beneath the Canopy (Forest Interlude)

TAB ART !!!!!

5

I can't believe it, indeed hslesperance I also think you are the inventor of the tab art !!!!!
It's moving to see the creation of a new art :-D

Congratulations on this AWESOME tab AND this AWESOME fish ;-)

I love you.

I love you.

I second the love. This song

5

I second the love. This song is beautiful and thank you so much!!!!

This is so fun to play along

5

This is so fun to play along to :)