Ads

Your Reality (Doki Doki Literature Club!) Guitar Tab

Submitted: Dec 10, 2017 by backey

5
Average: 5 (9 votes)
Download | Listen
Game: Doki Doki Literature Club!
Composer(s): Dan Salvato
Style: Arrangement, Fingerstyle

AutoScroll: Slow | Medium | Fast
Game: Doki Doki Literature Club
Title: Your Reality
Composer: Dan Salvato
Tabber: backey
Date: 10.12.2017

Tempo: 105

     Q    E  E  Q    E  E     Q.     Q.     S S E     Q    E  Q.     E  E     Q.     H        E   
E||--3---------------------|--1------3-------------|--3--------------------|--1------3--------L--|
B||--1----------1----------|--1------3-------------|--1-------1------------|--1------3--------L--|
G||--0-------0----------0--|--2------4-------------|--0-------2---------0--|--2------4--------L--|
D||--2----2----------2-----|------------------0----|--2----2--2------2-----|---------------------|
A||--3---------------------|----------------3---3--|--3-------0------------|---------------------|
E||------------------------|--1------3-------------|-----------------------|--1------3--------L--|


  Q    E  E  Q    E  S  S    E  S S E  E  Q    E  E     E  E  E  S S E  S S E  E     Q    E  S S S S E  E  E   
-------3--3--3-------3p-1-|--0--0-1-3--0-------------|--0--------3-5-3--3-5-3--8--|-------8--5-7---3-5--7--3--|
-------1----------1-------|---------1-----3----1--3--|-----1----------------------|-------6-------------0-----|
--------------------------|--------------------0-----|--------0-------------------|-------5------0------0-----|
-------2----------2-------|--------------------0-----|--------2-------------5-----|---------------------------|
--3----------0------------|---------3----------------|--3------------0------------|---------------------------|
--------------------------|--1------------3----------|----------------------------|--1------------------------|


  Q    E  E  Q    E  S S    E  S S E  E  E  E  E  E     E  E  E  S S E  S S E  E     Q    E  S S S S E  Q     
-------3--5--3-------0-1-|--3--1-0-------------------|-----0-----3-5-3--3-5-3--8--|-------8--5-7---5-7--8----|
-------1----------1------|---------3--0--------------|--------1-------------------|-------6-------------5----|
-------------------------|---------------2--0-----2--|--0-------------------------|-------5------0------0----|
-------2----------2------|---------3-----------------|--------2-------------5-----|--------------------------|
--3----------0-----------|---------------------------|--3------------0------------|--------------------------|
-------------------------|--1------------3-----x-----|----------------------------|--1-----------------------|


  E  E  E  Q    Q    E     E  S E.  Q    E  S S E     E  E  S E  Q    E  E  S    E.  E  S S Q    S E  E   
--3--3--3--3----1----0--|-----------0----3---------|-----5--3-0---------------|--------------------------|
--1--------1------------|--1--1-3------------------|--1----------3----L-------|--1------1-3-1----L-------|
--0--------2------------|--2-----------------------|--0-----0------------0--2-|------2-------------------|
--2---------------------|---------------------0----|--------------------------|--------------------------|
--3---------------------|-------------------3---3--|--3-----------------------|-------------3----L-0--3--|
------------------------|--1--------3--------------|--------------------------|--1-----------------------|


  E  E  E  Q    Q    E     E  S E.  Q    E  S S E     E  E  S E  Q    E  E  S    E.  E  S S H        S  
--3--3--3--3----1----0--|-----------0----3---------|-----5--3-0---------------|------------------------|
--1--------1------------|--1--1-3------------------|--1----------3----L-------|--1------1-3-1--------L-|
--0--------2------------|--2-----------------------|--0-----0------------0--2-|------2-----------------|
--2---------------------|---------------------0----|--------------------------|------------------------|
--3---------------------|-------------------3---3--|--3-----------------------|-------------3--------L-|
------------------------|--1--------3--------------|--------------------------|--1---------------------|


  E  E  S E  Q    E  E  S    Q.     Q    E  S S E    
-----5--3-0---------------|------------------------||
-------------3----L-------|--1------L-------1-3-1--||
---------------------0--2-|--------------2---------||
--------------------------|------------------------||
--3-----------------------|------------------------||
--------------------------|------------------------||
Login or Register to remove this ad.

2 comments on Your Reality

the guitar

the guitar part

-----------------|-----------------|-----------------|-----------------|
-----------3-----|-----------------|-----------1-----|-0---------0-----|
-------5-----5---|-------5---7p5---|-----0-2-----2---|-----0-2-----0---|
-----5-----------|-----7-----------|-----------------|-----------------|
-3---------------|-----------------|-----------------|-----------------|
-----------------|-5---------------|-1---------------|-3---------------|

Trouble with measure 12

5

For those who are having trouble with this tab:
Try tuning your low E string up to F! I find it a lot easier (especially measure 12)