Ads

Opening Theme (Dogtanian and the Three Muskehounds) Guitar Tab

Submitted: Jun 26, 2011 by 60NCA10

4
Average: 4 (1 vote)
Download | Listen
Game: Dogtanian and the Three Muskehounds
Composer(s): Guido & Maurizio De Angelis
Style: Arrangement, Fingerstyle

Click here for a video example.

AutoScroll: Slow | Medium | Fast



               DOGTANIAN AND THE THREE MUSKEHOUNDS
                         "Opening Theme"


           Original song by: Guido & Maurizio De Angelis

                  Fingerstyle Arrangement by:
                        Gonçalo Martins
                        March 30th 2011




   Intro:

      E   E   E   Q     E   Q       E  E  E  Q    E  Q     
E||--15----------15--------------|--3--------3------------|
B||------------------------------|------------------------|
G||------12--12--------12--12----|-----0--0-------0--0----|
D||------------------------------|------------------------|
A||------------------------------|------------------------|
E||------------------------------|------------------------|


   E   E   E   E   E   E   Q       E  E  E  S. E  E  E  E  T  
--15----------15----------15----|--3--------3--------3-------|
--------------------------------|----------------------------|
------12--12------12--12--------|-----0--0-----0--0----------|
--------------------------------|----------------------------|
--------------------------------|--------------------0--2--L-|
--------------------------------|--------------3--3----------|




   Verse 1:

  E  E  E  E  E  E  E  E     E  E  E  E  E  E  E  E   
--3--------3--------3-----|--3--1--0-----------------|
--------------------------|-----------3--1--0--------|
-----0--0-----0--0--------|--------------------2--0--|
--------------------------|--0--------0--------------|
--3--------3--0--------0--|--------------------------|
--------------------------|--------------3--------3--|


  E  E  E  E  E  E  E  E     E  E  E  E  Q    E  E   
--3--------3--------3-----|--5--3--1--0--0----------|
--------------------------|-------------------3-----|
-----0--0-----0--0--------|--------------0-------0--|
--------------------------|--0--------0-------------|
--3--------3--0--------0--|-------------------------|
--------------------------|-------------------------|


  E   E   E  E   E   E  E   E      E  E  E  E  Q    E  T S.  
--8----------8----------8------|--10--8--7--5--3----0--L----|
-------------------------------|----------------------------|
-------------------------------|----------------------------|
-----10--10-----10--10---------|----------------------------|
--8----------8--11---------11--|--10-----------0---------0--|
-------------------------------|------------3---------------|


  E  E  E  E  E  E  E  E     E  E  E  E  Q    Q
--3--------3--------3-----|--3--1--0---------------|
--------------------------|-----------3--1----1----|
-----0--0-----0--0--------|------------------------|
--0--------0--------------|--0---------------------|
--------------------------|--------------3----3----|
--------------3--------3--|--------3---------------|




   Verse 2:

  E  E  E  E  E  E  E  E     E  E  E  E  E  E  E  E   
--3--------3--------3-----|--3--1--0-----------------|
--------------------------|-----------3--1--0--------|
-----0--0-----0--0--------|--------------------2--0--|
--------------------------|--0--------0--------------|
--3--------3--0--------0--|--------------------------|
--------------------------|--------------3--------3--|


  E  E  E  E  E  E  E  E     E  E  E  E  Q    E  E   
--3--------3--------3-----|--5--3--1--0--0----------|
--------------------------|-------------------3-----|
-----0--0-----0--0--------|--------------0-------0--|
--------------------------|--0--------0-------------|
--3--------3--0--------0--|-------------------------|
--------------------------|-------------------------|


  E   E   E  E   E   E  E   E      E  E  E  E  Q    E  T S.  
--8----------8----------8------|--10--8--7--5--3----0--L----|
-------------------------------|----------------------------|
-------------------------------|----------------------------|
-----10--10-----10--10---------|----------------------------|
--8----------8--11---------11--|--10-----------0---------0--|
-------------------------------|------------3---------------|


  E  E  E  E  E  E  E  E     E  E  E  E  H
--3--------3--------3-----|--3--1--0--------------|
--------------------------|-----------3--1--------|
-----0--0-----0--0--------|-----------------------|
--0--------0--------------|--0--------------------|
--------------------------|--------------3--------|
--------------3--------3--|--------3--------------|




   Chorus (part 1):

  E  S S E  S S E  E  E  E     E  E  E  E  Q    Q     
-----0-0-0--0-0-0-----------|------------------------|
-------------------------1--|--1-----0---------------|
----------------------2-----|--------------2----1----|
-------------------2--------|------------------------|
--0-------------------------|-----------2------------|
-----0----------------------|--0--0--4---------------|


  E  S S E  S S E  E  E  E     E  E  Q    E  E  Q     
-----0-0-0--0-0-0--------0--|--0---------------------|
----------------------------|--------3----1-----0----|
----------------------2-----|------------------------|
-------------------2--------|--0---------------------|
--0-------------------------|----------------0--2----|
-----0----------------------|-----0--1----3----------|


  E  S S E  S S E  E  E  E     Q    Q    Q    Q     
-------------------------3--|--3----1----0---------|
----------------------1-----|-----------------3----|
-----0-0-0--0-0-0--0--------|----------------------|
----------------------------|----------------------|
--3-------------------------|----------------------|
-----3---0------------------|--1-------------------|


  Q    Q    Q.     E     E  E  E  Q.     Q     
------------5------3--|--3--------------------|
--1----0--------------|-----------------------|
----------------------|-----------------------|
----------------------|-----------------------|
----------------------|--3--------3------2----|
--3-------------------|-----0--3--------------|




   Chorus (part 2):

  E  S S E  S S E  E  E  E     E  E  E  E  Q    Q     
-----0-0-0--0-0-0-----------|--------------0---------|
-------------------------1--|--1-----0----------3----|
----------------------2-----|------------------------|
-------------------2--------|------------------------|
--0-------------------------|-----------2------------|
-----0----------------------|--0--0--4---------------|


  E  S S E  S S E  E  E  E     E  E  Q    E  E  Q     
-----0-0-0--0-0-0--------0--|--0----------3-----1----|
----------------------------|--------3---------------|
----------------------2-----|------------------------|
-------------------2--------|--0---------------------|
--0-------------------------|----------------0--2----|
-----0----------------------|-----0--1----3----------|


  E  S S E  S S E  E  E  E     Q    Q    Q    Q     
-------------------------3--|--3----1----0---------|
----------------------1-----|-----------------3----|
-----0-0-0--0-0-0--0--------|----------------------|
----------------------------|----------------------|
--3-------------------------|----------------------|
-----3---0------------------|--1-------------------|


  H        H           Q    Q    H          
--------------------|---------------------||
--1--------0--------|---------------------||
--------------------|--2------------------||
--------------------|---------------------||
--------------------|--0---------0--------||
--0-----------------|-------0-------------||




Duration Legend
---------------
H - half
Q - quarter
E - 8th
S - 16th
T - 32nd
. - note dotted



Tablature Legend
----------------
L - tied note


Login or Register to remove this ad.