Ads

File City Night (Digimon World) Guitar Tab

Submitted: Aug 08, 2011 by Lemoncobbler

5
Average: 5 (8 votes)
Download | Listen
Game: Digimon World
Composer(s): Yuko Ishii, Kouji Yamada
Style: Arrangement, Fingerstyle
Series: Digimon

AutoScroll: Slow | Medium | Fast
                                  file city                                     

File City Night Time
Digimon World
Tabbed by Lemoncobbler
August 5th



Track 1
     E  E  Q    H           Q    E  E  Q    E  E     H        H         
E||--0-------------------|------------------------|-----------0--------|
B||-----3-------1--------|----------1----------1--|--------------------|
G||--------2-------------|-------2-----0----2-----|--2-----------------|
D||--3-------------------|--0----------2----------|--3-----------------|
A||----------------------|------------------------|--------------------|
D||----------------------|------------------------|--------------------|


  H        H           E  E  Q    H           Q    E  E  Q    E  E   
-----------0--------|--0-------------------|------------------------|
--3-----------------|-----3-------1--------|----------1----------1--|
--------------------|--------2-------------|-------2-----0----2-----|
--------------------|--3-------------------|--0----------2----------|
--------------------|----------------------|------------------------|
--------------------|----------------------|------------------------|


  H        H           H        Q    Q       Q     Q    H         
-----------0--------|-----------5---------|----------------------|
--------------------|--3-------------6----|--8----10-------------|
--2-----------------|-----------5---------|-------------7--------|
--3-----------------|---------------------|--8----------0--------|
--------------------|---------------------|----------------------|
--------------------|---------------------|----------------------|


  Q    E  E  Q    Q       Q.     E  H           H        Q    Q     
-------3--5------------|---------5--5--------|-----------8----5----|
-------------3---------|--3------------------|---------------------|
--0---------------5----|--3------------------|--0------------------|
-------------0---------|------------0--------|-----------0---------|
-----------------------|---------------------|---------------------|
-----------------------|---------------------|---------------------|


  Q.     E  H           Q    E  E  Q    Q       H        H         
--3------------------|-------1--3--0---------|--------------------|
---------1--1--------|------------------1----|--3-----------------|
--2---------0--------|-------------0---------|--0-----------------|
------------2--------|--2--------------------|-----------3--------|
---------------------|-----------------------|--------------------|
---------------------|-----------------------|--------------------|


  Q    Q    Q    Q       Q.     E  H           H        H         
------------0----1----|---------------------|--------------------|
-------3--------------|--3------1--1--------|--------------------|
----------------------|------------3--------|--0--------3--------|
--0---------3---------|------------3--------|--------------------|
----------------------|--3------------------|--------------------|
----------------------|---------------------|--------------------|


  H        H           H        H           E  E  Q    H         
--------------------|-----------0--------|--0-------------------|
--------------------|--1-----------------|-----3-------1--------|
-----------0--------|--------------------|--------2-------------|
--------------------|--------------------|--3-------------------|
--3-----------------|--------------------|----------------------|
--------------------|--------------------|----------------------|


  Q    E  E  Q    E  E     H        H           H        H         
------------------------|-----------0--------|-----------0--------|
----------1----------1--|--------------------|--3-----------------|
-------2-----0----2-----|--2-----------------|--------------------|
--0----------2----------|--3-----------------|--------------------|
------------------------|--------------------|--------------------|
------------------------|--------------------|--------------------|


  E  E  Q    H           Q    E  E  Q    E  E     H        H         
--0-------------------|------------------------|-----------0--------|
-----3-------1--------|----------1----------1--|--------------------|
--------2-------------|-------2-----0----2-----|--2-----------------|
--3-------------------|--0----------2----------|--3-----------------|
----------------------|------------------------|--------------------|
----------------------|------------------------|--------------------|


  H        Q    Q       Q     Q    H           Q    E  E  Q    Q     
-----------5---------|----------------------|-------3--5------------|
--3-------------6----|--8----10-------------|-------------3---------|
-----------5---------|-------------7--------|--0---------------5----|
---------------------|--8----------0--------|-------------0---------|
---------------------|----------------------|-----------------------|
---------------------|----------------------|-----------------------|


  Q.     E  H           H        Q    Q       Q.     E  H         
---------5--5--------|-----------8----5----|--3------8--8--------|
--3------------------|---------------------|---------------------|
--3------------------|--0------------------|--2------------------|
------------0--------|-----------0---------|------------0--------|
---------------------|---------------------|---------------------|
---------------------|---------------------|---------------------|


  Q     Q     Q    Q       Q.      E   H           H        H         
-------13----12----8----|--8------10--10--------|-----------5--------|
------------------------|-------------10--------|--------------------|
-------------12---------|-------------10--------|--------------------|
------------------------|--8--------------------|--3-----------------|
--7---------------------|-----------------------|--------------------|
------------------------|-----------------------|--------------------|


  H        H           H        H           Q    Q    E  E  Q     
-----------6--------|-----------3--------|---------------0--1----|
-----------6--------|--6--------5--------|--1---------3----------|
--5-----------------|--------------------|------------------2----|
--------------------|--------------------|--2---------------3----|
--------------------|--------------------|-------1---------------|
--------------------|--------------------|-----------------------|


  E  E  Q    E  E  Q       E  E  H           H        H         
--1--3--5----5--6--8----|--5--6--8--------|--------------------|
----------------6-------|-----------------|--------------------|
------------------------|-----------------|--2-----------------|
--------3----------7----|-----------------|-----------3--------|
------------------------|-----------------|--------------------|
------------------------|--------8--------|--------------------|


  H        Q    E  E     Q    E  E  Q    E  E     H        H         
----------------1--3--|--5----5--6--8----5--6--|--8-----------------|
----------------------|----------6-------------|--------------------|
--2-------------------|------------------------|--------------------|
-----------3----------|--3----------7----------|--------------------|
-----------1----------|------------------------|-----------8--------|
----------------------|------------------------|--8-----------------|


   H        Q    Q        Q    E   E  Q    E  E     Q    E  E  Q    E  E   
-----------------8----|--10----8--10--5----3--5--|------------------------|
----------------------|--------------------------|--3----1--3-------------|
----------------------|--------------------------|-------------2----0--2--|
----------------------|---------------7----------|--3---------------------|
------------8---------|--------------------------|------------------------|
--10------------------|---8----------------------|------------------------|


  H        H           Q    Q    Q    Q       Q    H        Q     
--------------------|-------0----1----0----|---------------------|
--------------------|--3-------------------|-------1-------------|
-----------2--------|----------------------|--2-------------0----|
--0-----------------|-------3---------2----|---------------------|
--1-----------------|----------------------|-------0-------------|
--------------------|----------------------|---------------------|


  Q    H        Q       H        H           H.           Q     
---------------------|--------------------|--------------------|
----------------1----|--3-----------------|--------------------|
--L------------------|--0--------2--------|--2------------3----|
-------2-------------|--------------------|--------------------|
---------------------|--------------------|--------------------|
---------------------|--------------------|--5-----------------|


  H        H           H        H           H        H         
--------------------|--------------------|--------------------|
--------------------|--------------------|--------------------|
--------------------|--------------------|--------------------|
--3--------0--------|--3--------0--------|--3--------0--------|
--5-----------------|--------------------|--------------------|
--------------------|--------------------|--------------------|


  Q    Q    Q    Q       E  E  H        Q       Q    H        Q     
-------6---------5----|--L--3--3-------------|---------------------|
--6---------6---------|----------------------|---------------------|
----------------------|--------3-------------|-------3-------------|
----------------------|-----------------3----|--L------------------|
-------8---------3----|----------------------|----------------3----|
----------------------|----------------------|---------------------|


  Q    H        Q       Q    H          
---------------------|-------0--------||
----------------1----|--L-------------||
-------0-------------|----------------||
---------------------|----------------||
--L------------------|----------------||
---------------------|----------------||




Duration Legend
---------------
W - whole
H - half
Q - quarter
E - 8th
S - 16th
T - 32nd
X - 64th
. - note dotted
|-n-|  - n-tuplets


Tablature Legend
----------------
L - tied note
x - dead note
g - grace note
(n) - ghost note
> - accentuded note
NH - natural harmonic
AH - artificial harmonic
TH - tapped harmonic
SH - semi harmonic
PH - pitch harmonic
h - hammer on
p - pull off
b - bend
br - bendRelease
pb - preBend
pbr - preBendRelease
brb - bendReleaseBend
\n/ - tremolo bar dip
\n - tremolo bar dive
-/n - tremolo bar Release up
/n\ - tremolo bar inverted dip
/n - tremolo bar return
-\n - tremolo bar Release down
S - shift slide
s - legato slide
/ -  slide into from below or out of upwards
\ -  slide into from above or out of downwards
~ - vibrato
W - wide vibrato
tr - trill
TP - tremolo picking
T - tapping
S - slap
P - pop
< - fade in
^ - brush up
v - brush down
Login or Register to remove this ad.

5 comments on File City Night

goooooooood job^^

5

goooooooood job^^

I remember playing this game

I remember playing this game when I was little, and this tab is so awesome! Makes me wanna play this game again :D

Good job Lemoncobbler.

5

Good job Lemoncobbler.

This just made me

This just made me unreasonably happy! Thank you!

Good times...

5

-oyasumi!
- RAOGH! RAOGH! zzz