Login or Register to remove this ad.

Tristram (20 String Harp Guitar) (Diablo) Guitar Tab

Submitted: Aug 30, 2017 by DawnOfHumansEnd

5
Average: 5 (1 vote)
Download | Listen
Game: Diablo
Composer(s): Matt Uelmen
Style: Arrangement
Series: Diablo

AutoScroll: Slow | Medium | Fast
Soul Of The Devil




TUNING
G--------------------|
D--------------------|
C--------------------|
B--------------------|
A--------------------|
G--------------------|
e--------------------|
B--------------------|
G--------------------|
D--------------------|
A--------------------|
E--------------------|
g--------------------|
d--------------------|
a--------------------|
e--------------------|
b--------------------|
f#-------------------|
c#-------------------|
g#-------------------|









The Dark Stranger
Solo arrangement
FOR HARP GUITAR



INTRO

G---------------------------------------------------|
D-----------------------------------------X---------|
C---------------------------------------------------|
B---------------------------------------------------|
A-------------X-------------------------------------|
G---------------------------------------------------|
e-----0---0-0---0---2---0-x-0-----------------------|
B-----0---0-0---0-0-0---0-0-0---4-4-4--4-4----------|
G-----2-2-2-2---2-2-2---2-2-----2-2-2--2-2----------|     Repeat X2
D-----2-2-2-2---2-2-----2-2---1---1------1----------|
A-----0-0-0-------0----0--0-----------3-------------|
E---------0-------0---------------------------------|
g---------------------------------------------------|
d---------------------------------------------------|
a---------------------------------------------------|
e--------------------x----------------------x-------|
b---------------------------------------------------|
f#-----------------x---------------------------x----|
c#--------------------------------------------------|
g#---------------x---------------------------------x|



BEGIN

G--------------------|
D--------------------|
C--------------------|
B--------------------|
A--------------------|
G--------------------|
e-X------------------|
B-X-------(12)-------|
G-2------------(14)--|
D-2------------------|
A-0------------------|
E-X------------------|
g--------------------|
d--------------------|
a--------------------|
e--------------------|
b--------------------|
f#-------------------|
c#-------------------|
g#-------------------|


MOVEMENT 1

G--------------------------------------------------|
D---------------------------------------X----------|
C--------------------------------------------------|
B--------------------------------------------------|
A-X------------------------------------------------|
G--------------------------------------------------|     ATERNATE TAIL
e-----0---0-0----0---2------------------0----------|     e-5---5--5--|
B-----0---0-0----0-0-0----4-4-4--4-4-4--3----------|     B-4---4--4--|
G-----2-2-2-2----2-2-2----2-2-2--2-2-2--2----------|     G-2---2--2--|
D-----2-2-2-2----2-2----1-------3----3--0----1---0-|     D-1---------|
A-----0-0-0----0---0--------------------0------3---|     A-0-----1---|
E---------0--------0--------------------0----------|     E-0-------0-|
g--------------------------------------------------|
d--------------------------------------------------|
a--------------------------------------------------|
e--------------------------------------------------|
b--------------------------------------------------|
f#-------------------------------------------------|
c#-------------------------------------------------|
g#-------------------------------------------------|












MOVEMENT 2

G-----------------------------------------------------------|
D-----------------------------------------------------------|
C-----------------------------------------------------------|
B-----------------------------------------------------------|
A-X---------------------------------------------------------|
G-----------------------------------------------------------|
e-------------(24)--(24)---------(15)-(12)-------------(21)-|
B--10-------(24)--(24)------4-------------(17)----(17)------|
G--9------------------------2-------------------------------|
D--9------------------------1-------------------------------|
A--0------------------------2-------------------------------|
E--0------------------------0-------------------------------|
g-----------------------------------------------------------|
d-----------------------------------------------------------|
a-----------------------------------------------------------|
e-----------------------------------------------------------|
b-----------------------------------------------------------|
f#----------------------------------------------------------|
c#----------------------------------------------------------|
g#----------------------------------------------------------|




MOVEMENT 3

G-------------------------------------------------------------------|
D------------------------------------------------------X------------|
C-------------------------------------------------------------------|
B-------------------------------------------------------------------|
A-------------------------------------------------------------------|
G-------------------------------------------------------------------|
e-----0-------0---1/2--0-2----2----0-0--2/1------0----0--0---0---0--|
B---0-0-0---0-0-0------0-0-0----0----0----------0--0-0---0---0---0--|
G--2-2-2-2-2-2-2------3-3-3-3--3--3-3----------3----3----3---3---3--|
D-3-------3-------3/4---------4---------4/3---4----2-----0----------|
A---------------------------------------------------------------4---|
E-------------------------------------------------------------------|
g-------------------------------------------------------------------|
d-------------------------------------------------------------------|
a-------------------------------------------------------------------|
e-------------------------------------------------------------------|
b-------------------------------------------------------------------|
f#------------------------------------------------------------------|
c#------------------------------------------------------------------|
g#------------------------------------------------------------------|







MOVEMENT 4

G---------------------X--------------|
D--------------X---------------------|
C------------------------------------|
B-X----------------------------------|
A------------------------------------|
G------------------------------------|
e----0--------------0-----------0----|
B---3----3---------2--3--------2-2---|
G--4-------3--3---3-----4--4--3---3--|           REPEAR X2
D------------4--------4---4--2-----2-|
A--------4---------------------------|
E---------------------2------1-------|
g------------------------------------|
d------------------------------------|
a------------------------------------|
e------------------------------------|
b------------------------------------|
f#-----------------------------------|
c#-----------------------------------|
g#-----------------------------------|



G------------------------------------------------------------------------|
D------------------------------------------------------------------------|
C-------------X----------------------------------------------------------|
B------------------------------------------------------------------------|
A-X----------------------------------------------------------------------|
G------------------------------------------------------------------------|
e----0---------------0-----2------2---5---8------11---(12)------(21)-(5)-|
B---1----1----------1-----1------1---4---7-----10-----(12)-----------(5)-|
G--2-------2-2-----2-----0------2---5---8----11-------(12)-----------(5)-|
D-----------2-----------2------1---4---7---10----------------------------|
A--------2---------------------------------------------------------------|
E------------------------------------------------------------------------|
g------------------------------------------------------------------------|
d------------------------------------------------------------------------|
a------------------------------------------------------------------------|
e------------------------------------------------------------------------|
b------------------------------------------------------------------------|
f#-----------------------------------------------------------------------|
c#-----------------------------------------------------------------------|
g#-----------------------------------------------------------------------|


MOVEMENT 5

G----------------------X----------------------------X--|
D------------------------------------------------------|
C----------------------genocide------------------------|
B---------------X--------------------------------X-----|
A-X---------X------------------------------------------|
G------------------------------------------------------|
e---3-3-3------3-------2---------------e-----3------7--|
B---1-1-1------1-------3---------------B-----1------3--|
G---0-0-0------0-------4---------------G-----0------4--|
D---2---2------------------------------D-----2------0--|
A------------0-------------------------A-----0------0--|
E--------------------------------------E-----0------0--|
g----------x-------------------------------------------|
d----------------------x-------------------------------|
a--------------x---------------------------------------|
e------------------------------------------------------|
b-----x------------x-----------------------------------|
f#----x-x----------------------x-----------------------|
c#--x---x----------------x-----------------------------|
g#--x---x--------------------x-------------------------|




allow the bitter sour memory to emerge and dominate
let it taint the future eye of olde
trust is our greatest downfall
compassion is a curse

DIVIDER

G--------------------|
D--------------------|
C--------------------|
B--------------------|
A-X------------------|
G----------X---------|the past cannot be undone
e-3--------7---------|
B-1--------3---------|
G-0--------4---------|
D-2------------------|
A-0------------------|
E-0------------------|
g--------------------|
d--------------------|
a--------------------|
e--------------------|
b--------------------|
f#-------------------|
c#-------------------|
g#-------------------|

yet the future refuses to change


MOVEMENT 6

G----------------------------------------X--------------X--------|
D----------------------------------------------------------------|
C-X--------------------------------------------------------------|
B----------------------------------------------------------------|
A---------------------------------------------X------------------|
G------------------------------------------X---------------------|
e-0------------------------7-8-10-12-12--15---0------------------|
B-0-------------------8-10-----------12--15---0------------------|
G-9---------------7-8-----------------0--0----9------------------|
D-7--------7-9-12-----------------------------8------------------|
A-8-------------------------------------------7------2^----------|
E-0-----------------------------------0-------0--------------0/F-| <0/F= strike open and 
g----------------------------------------------------------------|  tune down to F 
d----------------------------------------------------------------|   then (silently) back up
a----------------------------------------------------------------|
e----------------------------------------------------------------|
b----------------------------------------------------------------|
f#---------------------------------------------------------------|
c#---------------------------------------------------------------|
g#---------------------------------------------------------------|



LAMENT 1

G------------------------------------X-----------------------------------------------------|
D------------------------------------------------------------------------------------------|
C------------------------------------------------------------------------------------------|
B-----------------------------------------------------------------X------------------------|
A-X----------------------------------------------------------------------------------------|
G------------------------------------------------------------------------------------------|
e-------0---------0------------e-------0--------------0--------e--------2------------2-----|
B-0h1----1-----1------1--------B---0-----0--0----0-----0----0- B-----------0---0--0----0---|
G-2---------2-------2-----2----G---2---2----0----0--------2--- G---2--2------------------3-|
D-2---2----2-----2------2------D---2-2-----2-------3--2------- D----2-----2-----------2----|
A-----0-------0----------------A---------------2---------2---- A-------------2------2---2--|
E------------------------------E--0--------------------0------ E-----------------0---------|
g------------------------------------------------------------------------------------------|
d------------------------------------------------------------------------------------------|
a------------------------------------------------------------------------------------------|
e------------------------------------------------------------------------------------------|
b------------------------------------------------------------------------------------------|
f#-----------------------------------------------------------------------------------------|
c#-----------------------------------------------------------------------------------------|
g#-----------------------------------------------------------------------------------------|






G-------------------------------------------------|
D-------------------------------------------------|
C-------------------------------------------------|
B-------------------------------------------------|
A-------------------------------------------------|
G-------------------------------------------------|
e-1p0-----1p0--------0-------0--------------(12)--|
B-----1-------1--------0-------0------------(12)--|
G-------2--------2-------1-------1----------(12)--|
D--------------------------2-------2----(7)-------|
A---------------------------------------(7)-------|
E-1------------------0------------------(7)-------|
g-------------------------------------------------|
d-------------------------------------------------|
a-------------------------------------------------|
e-------------------------------------------------|
b-------------------------------------------------|
f#------------------------------------------------|
c#------------------------------------------------|
g#------------------------------------------------|

REPEAT X2



LAMENT 3


G--------------------------------------------------------|
D-----------------------------------------------X--------|
C--------------------------------------------------------|
B--------------------------------------------------------|
A--------------------------------------------------------|
G--------------------------------------------------------|
e-2-------2------------2----2----2--2----0---0---0----0--|
B---2-------2----------2---2-----2--2----0---0---0----0--|
G-----3-------3------------------------------------------|
D-4-----4-------4----4---4-----4---4---4---2-------------|
A---------------------------------------------------4----|
E--------------------------------------------------------|
g--------------------------------------------------------|
d--------------------------------------------------------|
a--------------------------------------------------------|
e--------------------------------------------------------|
b--------------------------------------------------------|
f#-------------------------------------------------------|
c#-------------------------------------------------------|
g#-------------------------------------------------------|



MOVEMENT 7

G-----------------------------------------------------X--|
D---------------X----------------------------------------|
C--------------------------------------------------------|
B-X------------------------------------------------------|
A--------------------------------------------------------|
G--------------------------------------------------------|
e------0--------------0--------------------0-------------|
B----3---3-----------3---3---------------3---3-----------|
G--4-------4---4----4-------4---4------2-------2---2-----|
D------------4-----------4----4-----3------------3-------|
A--------4-----------------------------------------------|
E------------------------2----------1-----------------1--|
g--------------------------------------------------------|
d--------------------------------------------------------|
a--------------------------------------------------------|
e--------------------------------------------------------|
b--------------------------------------------------------|
f#-------------------------------------------------------|
c#-------------------------------------------------------|
g#-------------------------------------------------------|






G--------------------------------------------------------|
D--------------------------------------------------------|
C----------------X---------------------------------------|
B--------------------------------------------------------|
A-X------------------------------------------------------|
G--------------------------------------------------------|
e------0-----------------------0---2---5---8---11--(12)--|
B----1---1-----------1-------1-----1---4---7---10--(12)--|
G--3-------3---3---3-------0-------2---5---8---11--------|
D------------3-----------2---------1---4---7---10--------|
A--------------------------------------------------------|
E--------2-----------------------------------------------|
g--------------------------------------------------------|
d--------------------------------------------------------|
a--------------------------------------------------------|
e--------------------------------------------------------|
b--------------------------------------------------------|
f#-------------------------------------------------------|
c#-------------------------------------------------------|
g#-------------------------------------------------------|


Login or Register to remove this ad.

1 comment on Tristram (20 String Harp Guitar)

Ah good, finally a chance to

Ah good, finally a chance to break out my 20 string!