Ads

Tristram (Diablo) Guitar Tab

Submitted: Mar 29, 2010 by flukeh

5
Average: 5 (7 votes)
Download | Listen
Game: Diablo
Composer(s): Matt Uelmen
Style: Arrangement, Fingerstyle, Natural harmonics
Series: Diablo

AutoScroll: Slow | Medium | Fast
Tristram
Diablo
Composed by: Matt Uelmen
Arranged by: flukeh
25/03/10


     ^        ^           ^                   ^        ^         
     H        H           W                   H        H         
E||--0--------0--------|--0----------------|--0--------0--------|
B||--0--------0--------|--0----------------|--4--------4--------|
G||--2--------2--------|--2----------------|--2--------2--------|
D||--2--------2--------|--2----------------|--1--------1--------|
A||--0--------0--------|--0----------------|--0--------0--------|
E||--------------------|-------------------|--------------------|


  ^                   ^        ^           ^                 
  W                   H        H           W                 
--0----------------|--0--------0--------|--0----------------|
--4----------------|--0--------0--------|--0----------------|
--2----------------|--2--------2--------|--2----------------|
--1----------------|--2--------2--------|--2----------------|
--0----------------|--0--------0--------|--0----------------|
-------------------|--------------------|-------------------|


  ^        ^           ^                   ^        ^         
  H        H           W                   H        H         
--0--------0--------|--0----------------|--0--------0--------|
--4--------4--------|--4----------------|--0--------0--------|
--2--------2--------|--2----------------|--2--------2--------|
--1--------1--------|--1----------------|--2--------2--------|
--0--------0--------|--0----------------|--0--------0--------|
--------------------|-------------------|--------------------|


  ^                    v         v            v                 
  W                    H         H            W                 
--0----------------|--10--------10--------|--10----------------|
--0----------------|--11--------11--------|--11----------------|
--2----------------|----------------------|--------------------|
--2----------------|---0---------0--------|---0----------------|
--0----------------|--13--------13--------|--13----------------|
-------------------|----------------------|--------------------|


  ^        ^           ^                    v         v         
  H        H           W                    H         H         
--0--------0--------|--0----------------|--12--------12--------|
--0--------0--------|--0----------------|--11--------11--------|
--2--------2--------|--2----------------|----------------------|
--2--------2--------|--2----------------|---0---------0--------|
--0--------0--------|--0----------------|--13--------13--------|
--------------------|-------------------|----------------------|


   v                   ^        ^           ^                 
   W                   H        H           W                 
--12----------------|--0--------0--------|--0----------------|
--11----------------|--0--------0--------|--0----------------|
--------------------|--2--------2--------|--2----------------|
---0----------------|--2--------2--------|--2----------------|
--13----------------|--0--------0--------|--0----------------|
--------------------|--------------------|-------------------|


  ^        ^           ^                   ^        ^         
  H        H           W                   H        H         
--0--------0--------|--0----------------|--0--------0--------|
--4--------4--------|--4----------------|--0--------0--------|
--2--------2--------|--2----------------|--2--------2--------|
--1--------1--------|--1----------------|--2--------2--------|
--0--------0--------|--0----------------|--0--------0--------|
--------------------|-------------------|--------------------|


  ^                     ^                                  
  W                     W                W                 
--0----------------|--<>5----------------L----------------|
--0----------------|--<>5----------------L----------------|
--2----------------|--<>5----------------L----------------|
--2----------------|--<>5----------------L----------------|
--0----------------|--<>5----------------L----------------|
-------------------|--------------------------------------|


  E  E  E  E  E  E  E  E     E  E  E  E  E  E  E  E    
--------0-----------------|--------0------------------|
--------0-----0-----0-----|--------0-----0-----0------|
-----2-----2-----2-----2--|-----2-----2-----2---------|
--3-----------------------|--3--------------------3S--|
--------------------------|---------------------------|
--------------------------|---------------------------|


  E  E  E  E  E  E  E  E     E  E  E  E  E  E  E  E    
--------0-----------------|--------0------------------|
--------0-----0-----0-----|--------0-----0-----0------|
-----3-----3-----3-----3--|-----3-----3-----3---------|
--4-----------------------|--4--------------------4S--|
--------------------------|---------------------------|
--------------------------|---------------------------|


  E  E  E  E  E  E  E  E     E  E  E  E  E  E  E  E    
--------0-----------------|--------0------------------|
--------0-----0-----0-----|--------0-----0-----0------|
-----2-----2-----2-----2--|-----2-----2-----2---------|
--3-----------------------|--3--------------------3S--|
--------------------------|---------------------------|
--------------------------|---------------------------|


  E  E  E  E  E  E  E  E     E  E  E  E  E  E  E  E    
--------0-----------------|--------0------------------|
--------0-----0-----0-----|--------0-----0-----0------|
-----3-----3-----3-----3--|-----3-----3-----3---------|
--4-----------------------|--4--------------------4S--|
--------------------------|---------------------------|
--------------------------|--5-----------2--------L---|


  E  E  E  E  E  E  E  E     E  E  E  E  E  E  E  E    
--------0-----------------|--------0------------------|
--------0-----0-----0-----|--------0-----0-----0------|
-----2-----2-----2-----2--|-----2-----2-----2---------|
--3-----------------------|--3--------------------3S--|
--------------------------|---------------------------|
--1-----------------------|--1--------------------1S--|


  E  E  E  E  E  E  E  E     E  E  E  E  E  E  E  E    
--------0-----------------|--------0------------------|
--------0-----0-----0-----|--------0-----0-----0------|
-----3-----3-----3-----3--|-----3-----3-----3---------|
--4-----------------------|--4--------------------4S--|
--------------------------|---------------------------|
--2-----------------------|--2--------------------2S--|


  E  E  E  E  E  E  E  E     E  E  E  E  E  E  E  E      H        H         
--------0-----------------|---------------------------|--------------------|
--------0-----0-----0-----|--------0-----0-----0------|--------------------|
-----2-----2-----2-----2--|-----2-----2-----2---------|--------------------|
--3-----------------------|--3--------------------3S--|--4--------2--------|
--------------------------|---------------------------|--------------------|
--1-----------------------|--1--------------------1S--|--2--------0--------|


  H        H             E  E  E  E  E  E  E  E     E  E  E  E  E  E  E  E   
--------------------||------------0--------------|-----------0--------0-----|
--3--------2--------||------0--3-----------------|--------3-----3--------3--|
--------------------||*-----------------4-----4--|-----4-----------4--------|
--------------------||*--4-----------------4-----|--4-----------------------|
--5--------4--------||---2-----------4-----------|--5-----------------------|
--------------------||---------------------------|--------------2-----------|


  E  E  E  E  E  E  E  E     E  E  E  E  E  E  E  E   
--1--------0--------1-----|--1--------0--------1-----|
--------3-----3-----------|--------3-----3-----------|
-----2-----------2-----2--|-----2-----------2-----2--|
--3-----------------3-----|--3-----------------3-----|
--------------------------|--------------------------|
--1-----------------1-----|--1-----------------------|


  E  E  E  E  E  E  E  E     E  E  E  E  E  E  E  E   
-----------0--------------|-----------0--------0-----|
--------3-----------------|--------3-----3--------3--|
-----4-----------4-----4--|-----4-----------4--------|
--4-----------------4-----|--4-----------------------|
--2-----------4-----------|--5-----------------------|
--------------------------|--------------2-----------|


  E  E  E  E  E  E  E  E     E  E  E  E  E  E  E  E   
--1--------0--------1-----|--1--------0--------1-----|
--------3-----3-----------|--------3-----3-----------|
-----2-----------2-----2--|-----2-----------2-----2--|
--3-----------------3-----|--3-----------------3-----|
--------------------------|--------------------------|
--1-----------------1-----|--1-----------------------|


  E  E  E  E  E  E  E  E     E  E  E  E  E  E  E  E   
--------------------------|--------------------------|
--------------------------|-----------------5-----5--|
--2--------2--4--------4--|-----5-----5--------------|
--------------------------|--------------2-----2-----|
-----0--0--------2--2-----|--3-----3-----------------|
--------------------------|--------------------------|


  E  E  E  E  E  E  E  E     E   E  E   E   E   E   E   E   
--------------------------|--------------------------------|
-----4-----4-----7-----7--|-----10-----10------13------13--|
--------------------------|--------------------------------|
--1-----1-----4-----4-----|--7------7------10------10------|
--------------------------|--------------------------------|
--------------------------|--------------------------------|


    ^                   v        v           v                 
    W                   H        H           W                 
--<>7----------------|--3--------3--------|--3----------------|
--<>7----------------|--1--------1--------|--1----------------|
--<>7----------------|--0--------0--------|--0----------------|
--<>7----------------|--2--------2--------|--2----------------|
--<>7----------------|--0--------0--------|--0----------------|
---------------------|--------------------|-------------------|


  v        v           v                   v        v         
  H        H           W                   H        H         
--2--------2--------|--2----------------|--3--------3--------|
--3--------3--------|--3----------------|--1--------1--------|
--4--------4--------|--4----------------|--0--------0--------|
--0--------0--------|--0----------------|--2--------2--------|
--0--------0--------|--0----------------|--0--------0--------|
--------------------|-------------------|--------------------|


  v                   v        v           v                 
  W                   H        H           W                 
--3----------------|--2--------2--------|--2----------------|
--1----------------|--3--------3--------|--3----------------|
--0----------------|--4--------4--------|--4----------------|
--2----------------|--0--------0--------|--0----------------|
--0----------------|--0--------0--------|--0----------------|
-------------------|--------------------|-------------------|


  ^        ^           ^                   ^        ^         
  H        H           W                   H        H         
--0--------0--------|--0----------------|--0--------0--------|
--1--------1--------|--1----------------|--0--------0--------|
--2--------2--------|--2----------------|--0--------0--------|
--3--------3--------|--3----------------|--2--------2--------|
--0--------0--------|--0----------------|--3--------3--------|
--------------------|-------------------|--------------------|


  ^                   ^        ^           ^                   
  W                   H        H           H.           Q      
--0----------------|--0--------0--------|--0------------------|
--0----------------|--1--------1--------|--1------------------|
--0----------------|--2--------2--------|--2------------------|
--2----------------|--3--------3--------|--3------------------|
--3----------------|--0--------0--------|--0------------------|
-------------------|--------------------|---------------7S----|


  E  S S S S S S S S S S S S S S    S S S S S S S S S S S S S S S S  
---------------------------------|----------------------------------|
---------------------------------|----------------------------------|
---------------------------------|----------------------------------|
---------------------------------|----------------------------------|
---------------------------------|----------------------------------|
--0--0-0-0-0-0-0-0-0-0-0-0-0-0-0-|--0-0-0-0-0-0-0-0-0-0-0-0-0-0-0-0-|


  ^        ^           ^                   ^        ^         
  H        H           W                   H        H         
--3--------3--------|--3----------------|--2--------2--------|
--1--------1--------|--1----------------|--3--------3--------|
--0--------0--------|--0----------------|--4--------4--------|
--2--------2--------|--2----------------|--0--------0--------|
--0--------0--------|--0----------------|--0--------0--------|
--------------------|-------------------|--------------------|


  ^                   ^        ^           ^                 
  W                   H        H           W                 
--2----------------|--3--------3--------|--3----------------|
--3----------------|--1--------1--------|--1----------------|
--4----------------|--0--------0--------|--0----------------|
--0----------------|--2--------2--------|--2----------------|
--0----------------|--0--------0--------|--0----------------|
-------------------|--------------------|-------------------|


  ^        ^           ^                   ^        ^         
  H        H           W                   H        H         
--2--------2--------|--2----------------|--0--------0--------|
--3--------3--------|--3----------------|--1--------1--------|
--4--------4--------|--4----------------|--2--------2--------|
--0--------0--------|--0----------------|--3--------3--------|
--0--------0--------|--0----------------|--0--------0--------|
--------------------|-------------------|--------------------|


  ^                ^                                                  
  W                H            W                   W                 
--0----------------0---------|--L----------------|--L----------------|
--1----------------0S--------|--L----------------|--L----------------|
--2----------------0---------|--L----------------|--L----------------|
--3----------------2---------|--L----------------|--L----------------|
--0----------------3---------|--L----------------|--L----------------|
-----------------------------|-------------------|-------------------|


  ^        ^           ^                                            
  H        H           W                   Q      Q    Q      Q     
--0--------0--------|--0----------------|--------------------------|
--1--------1--------|--1----------------|--------------------------|
--2--------2--------|--2----------------|--------------------------|
--3--------3--------|--3----------------|--2br---------2br---------|
--0--------0--------|--0----------------|--------------------------|
--------------------|-------------------|---------0----L------0----|


  Q      Q    Q      Q       E  E  E  E  E  E  E  E   
--------------------------|-----------0--------------|
--------------------------|--------1--------1--------|
--------------------------|--2--2--------2--------2--|
--2br---------2br---------|--------2--------2--------|
--------------------------|--0-----------------------|
---------0----L------0----|--------------------0-----|


  E  E  E  E  E  E  E  E     E  E  E  E  E  E  E  E   
-----------0--------------|--------------------0-----|
--------1--------1--------|--------0--------0--------|
-----2--------2--------2--|-----0--------0-----------|
--------2--------2--------|--------2-----------------|
--0-----------------------|-----------2--------------|
--------------------0-----|--0--------------------0--|


  E  E  E  E  E  E  E  E     Q    E  E  E  E  E  E     E  E  E  E  E  E  Q     
--------------------------|-------------------------|-------------------------|
-----------0--------------|--0----0-----------------|--0-----------0----------|
--------0--------0--------|----------2-----------2--|-----2-----------2--2----|
-----2-----------------2--|-------------1-----1-----|--------1-----------1----|
--2--------2--------2-----|--2-------------2--------|-----------2-------------|
--------------0-----------|-------------------------|-------------------------|


  E  E  E  E  E  E  E  E     E  E  E  E  E  E  E  E   
--1--0--------1--0--0-----|--0--0--------0--0--0-----|
--------1--0--------1-----|--------0--------------0--|
--------------------------|-----------1--------------|
--------------------------|--------------------------|
--------------------------|--------------------------|
--1-----------1--------1--|--0-----------0-----------|


  E  E  E  E  E  E  E  E     E  E  E  E  E  E  E  E   
-----------0--------------|-----------0--------------|
--------1--------1--------|--------1--------1--------|
--2--2--------2--------2--|-----2--------2--------2--|
--------2--------2--------|--------2--------2--------|
--0-----------------------|--0-----------------------|
--------------------0-----|--------------------0-----|


                                                                      ^         
  E  E  E  E  E  E  E  E     E  E  E  E  E  E  E    E     Q    Q      H         
--------------------0-----|-----------0----------------|------------<>7--------|
--------0--------0--------|--------0-------------------|------------<>7--------|
-----0--------0-----------|-----------------0----------|------------<>7--------|
--------2-----------------|-----2--------2-------------|------------<>7--------|
-----------2--------------|--2--------2--------2S--12--|-----------------------|
--0--------------------0--|----------------------------|--7----7---------------|


  E  E  E  E  E  E  E  E     E  E  E  E  E  E  E  E   
--2--2--------2--2--------|--2--2--------2--2--------|
--------2-----------2-----|--------2-----------2-----|
-----------3-----------3--|-----------3-----------3--|
--4-----------4-----------|--4-----------4-----------|
--------------------------|--------------------------|
--------------------------|--------------------------|


  E  E  E  E  E  E  E  E     E  E  E  E  E  E  E  E     
--2--2--2--2--2--2--2--2--|--2--2--1--2-----2-----2---||
--------------------------|--------------3-----2------||
--------------------------|--------------------------*||
--4-----4-----4-----4-----|--4-----3-----0-----------*||
--------------------------|--------------------4------||
--------------------------|---------------------------||


   ^  v  ^  ^  v  ^  ^ v ^ v    ^  v  ^  ^  v  ^  ^  ^   
   E  E  E  E  E  E  S S S S    E  E  E  E  E  E  E  E   
---0--0--0--0--0--0--0-0-0-0-|--0--0--0--0--0--0--0--0--|
---0--0--0--0--0--0--0-0-0-0-|--4--4--4--4--4--4--1--1--|
*--4--4--4--4--4--4--4-4-4-4-|--4--4--4--4--4--4--4--4--|
*--2--2--2--2--2--2--2-2-2-2-|--2--2--2--2--2--2--2--2--|
-----------------------------|--------------------------|
-----------------------------|--------------------------|


  ^  v  ^  ^  v  ^  ^ v ^ v    ^  v  ^  ^  v ^ ^ ^ v ^ ^ ^  
  E  E  E  E  E  E  S S S S    E  E  E  E  S S S S S S S S  
--0--0--0--0--0--0--0-0-0-0-|--0--0--0--0--0-0-0-0-0-0-0-0-|
--0--0--0--0--0--0--0-0-0-0-|--0--0--0--0--0-0-0-0-0-0-0-0-|
--4--4--4--4--4--4--4-4-4-4-|--4--4--4--4--4-4-4-4-4-4-4-4-|
--2--2--2--2--2--2--2-2-2-2-|--2--2--2--2--2-2-2-2-2-2-2-2-|
----------------------------|------------------------------|
----------------------------|------------------------------|


  ^  v  ^  ^  v  ^  ^ v ^ v    ^  v  ^  ^  v  ^  ^  ^   
  E  E  E  E  E  E  S S S S    E  E  E  E  E  E  E  E   
--2--2--2--2--2--2--2-2-2-2-|--2--2--2--2--2--2--2--2--|
--0--0--0--0--0--0--0-0-0-0-|--0--0--0--0--0--0--0--0--|
--4--4--4--4--4--4--4-4-4-4-|--3--3--3--3--3--3--0--0--|
--4--4--4--4--4--4--4-4-4-4-|--4--4--4--4--4--4--4--4--|
----------------------------|--------------------------|
----------------------------|--------------------------|


  ^  v  ^  ^  v  ^  ^ v ^ v    ^  v  ^  ^  v ^ ^ ^ v ^ ^ ^    
  E  E  E  E  E  E  S S S S    E  E  E  E  S S S S S S S S    
--2--2--2--2--2--2--2-2-2-2-|--2--2--2--2--2-2-2-2-2-2-2-2--||
--0--0--0--0--0--0--0-0-0-0-|--0--0--0--0--0-0-0-0-0-0-0-0--||
--4--4--4--4--4--4--4-4-4-4-|--4--4--4--4--4-4-4-4-4-4-4-4-*||
--4--4--4--4--4--4--4-4-4-4-|--4--4--4--4--4-4-4-4-4-4-4-4-*||
----------------------------|-------------------------------||
----------------------------|-------------------------------||


  ^  v  ^  ^  v  ^  ^ v ^ v    ^                  
  E  E  E  E  E  E  S S S S    W                  
--0--0--0--0--0--0--0-0-0-0-|--0----------------||
--0--0--0--0--0--0--0-0-0-0-|--0----------------||
--4--4--4--4--4--4--4-4-4-4-|--4----------------||
--2--2--2--2--2--2--2-2-2-2-|--2----------------||
----------------------------|-------------------||
----------------------------|-------------------||




Duration Legend
---------------
W - whole
H - half
Q - quarter
E - 8th
S - 16th
T - 32nd
X - 64th
. - note dotted
|-n-|  - n-tuplets


Tablature Legend
----------------
L - tied note
x - dead note
g - grace note
(n) - ghost note
> - accentuded note
NH - natural harmonic
AH - artificial harmonic
TH - tapped harmonic
SH - semi harmonic
PH - pitch harmonic
h - hammer on
p - pull off
b - bend
br - bendRelease
pb - preBend
pbr - preBendRelease
brb - bendReleaseBend
\n/ - tremolo bar dip
\n - tremolo bar dive
-/n - tremolo bar Release up
/n\ - tremolo bar inverted dip
/n - tremolo bar return
-\n - tremolo bar Release down
S - shift slide
s - legato slide
/ -  slide into from below or out of upwards
\ -  slide into from above or out of downwards
~ - vibrato
W - wide vibrato
tr - trill
TP - tremolo picking
T - tapping
S - slap
P - pop
< - fade in
^ - brush up
v - brush down

Login or Register to remove this ad.

2 comments on Tristram

This music is nice as your

5

This music is nice as your tab

Awesome!

Awesome!