Ads

Rogue (Diablo II) Guitar Tab

Submitted: Mar 29, 2010 by Bhael

5
Average: 5 (2 votes)
Download | Listen
Game: Diablo II
Composer(s): Matt Uelmen
Style: Arrangement, Fingerstyle, Natural harmonics
Series: Diablo

AutoScroll: Slow | Medium | Fast
                                   Rogue                                       
                                  Diablo II
 
                                Matt Uelmen

Dropped D tunimg                                     



              ^                    ^                    ^         
     H        H           H        H           H        H         
E||-----------5--------|--------------------|--------------------|
B||-----------1--------|--------------------|-----------3--------|
G||-----------1--------|--------------------|-----------2--------|
D||-----------1--------|-----------0--------|-----------3--------|
A||-----------1--------|-----------0--------|--3--------2--------|
D||--2--------1--------|-----------2--------|--------------------|


            ^                     ^                ^               
  Q    Q    H           Q    Q    H           Q    Q    Q    Q     
---------------------|------------0--------|----------------------|
------------1--------|--0---------0--------|--3----3--------------|
------------0--------|------------1--------|-------2--------------|
-------0----2--------|--1---------2--------|-------3--------------|
--0------------------|-------1-------------|----------------------|
---------------------|---------------------|-------0----0----0----|


       ^                              ^                      ^           
  Q    Q    Q    Q       Q      Q     H           Q     Q    Q     Q     
-------0--------------|--------------10--------|--8----------8----------|
-------0--------------|---------------8--------|-------10----8----12----|
-------0--------------|---------------8--------|-------------8----------|
----------------------|---------------8--------|-------------8----------|
----------------------|------------------------|-------------8----------|
--0----2----2----2----|--0----0g2--------------|-------------8-----9----|


             ^           ^                      ^        ^         
   Q    Q    H           H        Q     Q       H        H         
----------------------|----------------------|--0--------1--------|
--10----8----0--------|--0-------------------|--0--------2--------|
-------------2--------|--0-------------------|--2--------3--------|
-------------2--------|--2--------3s----2----|--2--------3--------|
-------------0--------|--2-------------------|--0-----------------|
---8----5-------------|----------------------|--------------------|


           ^                                                                
  H        H           E  E  Q    E  E  E  E     E   E   Q    Q     E   E   
--3--------5--------|----------------------7--|--8-------------------------|
-----------5--------|--5----------5-----------|-----12--10-----------------|
-----------5--------|-----5----------5--------|---------------9------------|
-----------7--------|--------7----------7-----|--0-----------------10s--9--|
--------------------|-------------------------|----------0-----------------|
--------------------|-------------------------|--0-------------------------|


  ^             ^                                                         
  H        Q    Q       Q    Q    E  E  E  E     E  E  E  E  E  E  E  E   
--5-------------0----|---------------------0--|--------5-----------5-----|
--5-------------3----|------------------------|-----5-----5-----5-----5--|
--5-------------2----|------------2-----2-----|--2-----------2-----------|
----------------0----|---------------2--------|--------------------------|
--0------------------|--3----2----0-----------|--0-----------0-----------|
-----------3---------|------------------------|--------------------------|


  E  E  E  E  E  E  E  E     E  E  E  E  E  E  E  E   
-----0-----0-----0--5-----|--------5-----------5-----|
--------------1--------4--|-----4-----4-----4-----4--|
--2--------2--------------|--5-----------5-----------|
--------2-----------------|--------------------------|
--0-----------0-----------|--0-----------0-----------|
--------------------------|--------------------------|


                                                        ^          NH        
  E  E  E  E  E  E  E  E     E  E  E  E  E  E  E  E     H          H         
--6-----5-----------3-----|--------5-----------1-----|--0-------------------|
-----------4-----4-----4--|-----4-----4-----1--------|--0-------------------|
-----5--------5-----------|--5-----------2-----------|--2-------------------|
--------------------------|--------------------------|--2--------<>7--------|
--0-----------0-----------|--0-----------0-----------|--0-------------------|
--------------------------|-----------------------0--|----------------------|


    TH              ^                       NH    NH    NH    
    H        E   E  Q       E  E   E  E     E     E     Q     
-------------------------|---------------------------<>12----|
--------------------3----|---------------------<>12----------|
--<>7---------------2----|---------------<>12----------------|
--------------------0----|--0--2s--3--0----------------------|
-------------0h--3-------|-----------------------------------|
-------------------------|-----------------------------------|


  ^              TH     TH                                 
  H        E     E      Q        E  E  E  E  E  E  E   E   
------------------------------|--------------------0h--1--|
------------------------------|--3------------------------|
--3------------------<>(3)----|-----2---------------------|
--5-----------<>(5)-----------|--------------0--2--2s--3--|
--5---------------------------|-----------0---------------|
--0---------------------------|--------0------------------|


                 ^                   ^                         ^               
  E  E  E  E  E  Q    E     E  E  E  Q    E  E  E     E  E  E  E  E  E  E  E   
--------0----------------|-----------3-------------|-----------5-----------6--|
-----3-----3-------------|-----------4----------4--|-----------4--------------|
--------------2--3-------|-----------5-------------|--5-----5--5--------5-----|
-----------------1-------|--5-----3--5-------5-----|-----5-----5-----5--------|
-----------------0-------|-------------------------|--------------0-----------|
----------------------3--|----------------0--------|--------------------------|


           ^                                          
  E  E  E  E  E  E  E  E     E  E  E  E  E  E  E  E   
-----------3-----------3--|-----------5-----------6--|
--------4--4--------4-----|--4-----4-----------4-----|
-----5-----5-----5--------|-----5-----------5--------|
--5--------5--5-----------|--------------5-----------|
-----------x--------------|-----------------------0--|
-----------5--------------|--------------------------|


  E  E  E  E  E  E  E  E      E  E  E  E   E  E  E  E    
---------------------------|----------------------------|
--------4------------------|----------------------------|
-----5-----2-----------2h--|--0--------2p--0--------2h--|
--5-----------------2------|-----2------------2---------|
-----------------0---------|--------0------------0------|
--------------0------------|----------------------------|


  E  E  E  E  E  E  E  E      E  E  E  E   E  E  E  E   
---------------------------|---------------------------|
-----------3-----------3h--|--0--------3p--0-----------|
--0-----------------1------|-----1------------1--------|
-----2-----------2---------|--------2------------2-----|
--------0-----0------------|---------------------------|
---------------------------|-----------0------0-----0--|


  E  Q    E  E  E  E  E     E  E  E  E  E  E  E  E   
----------2-----------2--|-----------5-----------8--|
-------------------1-----|--------3-----------6-----|
----------------1--------|-----4-----------7--------|
-------------0-----------|--4-----------7-----------|
-------------------------|--------------------------|
-----0-------------------|--------------------------|


   E   E  E  Q    E  E  E     E  E  E  E  E  E  E  E   
------------------------0--|-----------0-----------0--|
----------9----------------|--0-----------0-----------|
------10-------------2-----|-----2-----------2--------|
--10--------------2--------|--------2-----------2-----|
---------------------------|--------------------------|
-------------2-------------|--------------------------|


  E  E  E  Q    E  E  E     E  E  E  E  E  E  Q       E  E  Q    Q    E  E   
-------------------------|-------------------------|------------------------|
--0-------------------1--|--0-----------1--0-------|--1--0---------------1--|
-----2-------------0-----|-----0--------------0----|--------0---------2-----|
--------2-------2--------|--------2----------------|-------------2----------|
-----------3-------------|-----------3-------------|-------------0----------|
-------------------------|-------------------------|------------------------|


  E  E  E  E  E  E  E  E     E  E  E  E  Q    E  E     E  E  E  E  E  E  E  E   
--0-----------3-----------|--0----------------------|--------------------------|
-----1-----------1--------|-----1-------------------|--0-----------3-----------|
--------2-----------2-----|--------2----------------|-----0-----------------0--|
-----------2-----------2--|-----------2----------2--|--------2-----------2-----|
--------------------------|--3--2--0----------2-----|-----------2-----2--------|
--------------------------|-----------3--2----------|--------------------------|


                   ^                                                    ^     
  E  E  E  E  Q    Q       E  E  E  E  E  E  E  E     E  E  E  E  E  E  Q     
------------------------|--------------------0-----|--------------------3----|
--3-----1----------0----|--------------------------|-----0-----------0--4----|
-----0--------4----1----|--------1-----------------|--1-----------1-----5----|
-----------2-------2----|-----2-----2-----2-----2--|-----------2--------5----|
-------------------3----|--3-----------3-----------|-------------------------|
------------------------|--------------------------|--------2----------------|


                    ^              ^           ^     
  E  E  E  E  E  E  E  E     E  E  E  E  E  E  Q     
--------------------5-----|--------6-----------5----|
--------4-----------5-----|-----5--5--------5--5----|
-----5-----5-----5--6-----|--6-----6-----6-----6----|
--5-----------5-----5--5--|--------5--5--------7----|
--------0-----------------|--5--------------6--7----|
--------------------------|--------------------5----|


    TH     TH     TH          ^                          ^              
    Q      Q      H           W                   E   E  H        Q     
--<>5----------------------|-------------------|-----------------------|
---------<>5---------------|--3----------------|--3s--1--1--------1----|
----------------<>6--------|--2----------------|---------2-------------|
---------------------------|--3----------------|---------2-------------|
---------------------------|--0----------------|---------3-------------|
---------------------------|--0----------------|--0------0-------------|


  ^                   ^                     ^                 
  W                   H        Q    Q       W                 
-------------------|--0------------------|--0----------------|
--3----------------|--1------------------|--0----------------|
--4----------------|--0--------0---------|--2----------------|
--5----------------|--2-------------3----|--2----------------|
--5----------------|--x------------------|--0----------------|
--0----------------|--0------------------|--0----------------|


             ^           ^          TH                             
  Q     Q    H           H          H                              
--3s----1----1--------|--3--------<>3--------|-------------------||
-------------3--------|--4-------------------|-------------------||
-------------2--------|--5-------------------|-------------------||
-------------0--------|--5-------------------|-------------------||
-------------x--------|----------------------|-------------------||
--0----------2--------|----------------------|-------------------||




Duration Legend
---------------
W - whole
H - half
Q - quarter
E - 8th
S - 16th
T - 32nd
X - 64th
. - note dotted
|-n-|  - n-tuplets


Tablature Legend
----------------
L - tied note
x - dead note
g - grace note
(n) - ghost note
> - accentuded note
NH - natural harmonic
AH - artificial harmonic
TH - tapped harmonic
SH - semi harmonic
PH - pitch harmonic
h - hammer on
p - pull off
b - bend
br - bendRelease
pb - preBend
pbr - preBendRelease
brb - bendReleaseBend
\n/ - tremolo bar dip
\n - tremolo bar dive
-/n - tremolo bar Release up
/n\ - tremolo bar inverted dip
/n - tremolo bar return
-\n - tremolo bar Release down
S - shift slide
s - legato slide
/ -  slide into from below or out of upwards
\ -  slide into from above or out of downwards
~ - vibrato
W - wide vibrato
tr - trill
TP - tremolo picking
T - tapping
S - slap
P - pop
< - fade in
^ - brush up
v - brush down
Login or Register to remove this ad.

1 comment on Rogue

omg, that first note, how do

omg, that first note, how do i get my pinky to 5 WOW what a stretch that is