Ads

Intro Theme (Markus Hopeful Piano) (Detroit: Become Human) Guitar Tab

Submitted: Mar 13, 2019 by laoise

5
Average: 5 (6 votes)
Download | Listen
Game: Detroit: Become Human
Composer(s): Philip Sheppard, Nima Fakhrara, John Paesano
Style: Arrangement, Fingerstyle

AutoScroll: Slow | Medium | Fast
Detroit Become Human - Intro Theme (Markus Hopeful Piano)
Arranged by Laoise Earle

Standard Tuning

     E  E  E  E  E  E  E  E     E  E  E  E  E  E  E  E     E  E  E  E  E  E  E  E   
E||--0-----------0-----------|--------------------------|--------------------------|
B||-----0-----0-----0-----0--|--3-----------3-----------|--1--0-----0--1--0-----0--|
G||--------0-----------0-----|-----4-----4-----4-----4--|--------0-----------0-----|
D||--2-----------------------|--------5-----------5-----|--------------------------|
A||--------------------------|--5-----------------------|--3-----------------------|
E||--------------------------|--------------------------|--------------------------|


  E  E  E  E  E  E  E  E     E  E  E  E  E  E  E  E     E  E  E  E  E  E  E  E   
--------------------------|--0-----------0-----------|--------------------------|
--0-----------0-----------|-----0-----0-----0-----0--|--3-----------3-----------|
-----0-----0-----0-----0--|--------0-----------0-----|-----4-----4-----4-----4--|
--------2-----------2-----|--2-----------------------|--------5-----------5-----|
--------------------------|--------------------------|--5-----------------------|
--------------------------|--------------------------|--------------------------|


  E  E  E  E  E  E  E  E     E  E  E  E  E  E  E  E      E  E  E  E  E  E  E  E   
--------------------------|--------------------------|--12-----------0-----------|
--1--0-----0--1--0-----0--|--0-----------0-----------|------0-----0-----0-----0--|
--------0-----------0-----|-----0-----0-----0-----0--|---------0-----------0-----|
--------------------------|--------2-----------------|---------------------------|
--3-----------------------|--------------------7-----|---------------------------|
--------------------------|--------------------------|--12-----------------------|


   E  E  E  E   E  E  E  E     E  E  E  E   E  E  E  E     E  E  E  E  E  E  E  E   
--10------------------------|--8------------------------|--------------7-----5-----|
------0-----0------0-----0--|-----0-----0------0-----0--|--0-----------0-----------|
---------0------------0-----|--------0------------0-----|-----0-----0-----0-----0--|
---------------12-----------|--------------10-----------|--------------------------|
----------------------------|---------------------------|--------7-----------7-----|
--10------------------------|--8------------------------|--------------------------|


                             ^                                                   
  E  E  E  E  E  E  E  E     E  E  E  E  E  E  E  E     E  E  E  E  E  E  E  E   
--7-----------0-----------|--5-----------7-----------|--0-----------------------|
-----0-----0-----0-----0--|-----0-----0-----0-----0--|--1--0-----0--1--0-----0--|
--------0-----------0-----|--7-----0-----7-----0-----|--------0-----------0-----|
--------------------------|--0-----------------------|--------------------------|
--------------------------|--------------------------|--3-----------------------|
--0-----------------------|--------------------------|--------------------------|


  E  E  E  E  E  E  E  E      E  E  E  E  E  E  E  E      E  E  E  E   E  E  E  E   
--------------2-----------|--12-----------0-----------|--10------------------------|
--0-----------0-----------|------0-----0-----0-----0--|------0-----0------0-----0--|
-----0-----0-----0-----0--|---------0-----------0-----|---------0------------0-----|
--------2-----------------|---------------------------|---------------12-----------|
--------------------7-----|---------------------------|----------------------------|
--------------------------|--12-----------------------|--10------------------------|


  E  E  E  E   E  E  E  E     E  E  E  E  E  E  E  E     E  E  E  E  E  E  E  E   
--8------------------------|--------------7-----5-----|--7-----------0-----------|
-----0-----0------0-----0--|--0-----------0-----------|-----0-----0-----0-----0--|
--------0------------0-----|-----0-----0-----0-----0--|--------0-----------0-----|
--------------10-----------|--------------------------|--------------------------|
---------------------------|--------7-----------7-----|--------------------------|
--8------------------------|--------------------------|--0-----------------------|


  ^                                                                              
  E  E  E  E  E  E  E  E     E  E  E  E  E  E  E  E     E  E  E  E  E  E  E  E   
--5-----------7-----------|--0-----------------------|--------------2-----------|
-----0-----0-----0-----0--|--1--0-----0--1--0-----0--|--0-----------0-----------|
--7-----0-----7-----0-----|--------0-----------0-----|-----0-----0-----0-----0--|
--0-----------------------|--------------------------|--------2-----------2-----|
--------------------------|--3-----------------------|--------------------------|
--------------------------|--------------------------|--------------------------|


  E  E  E  E  E  E  E  E     E  E  E  E  E  E  E  E     E  E  E  E  E  E  E  E   
--------------------------|--------------------------|--------------------------|
--------------0-----------|--------------3-----------|--0-----------0-----------|
-----0-----0-----0-----0--|--5--0-----0-----0-----0--|-----0-----0-----0-----0--|
--4-----4-----------4-----|--------4-----------4-----|--------4-----------4-----|
--------------7-----------|--5-----------5-----------|--3-----------------------|
--0-----------------------|--------------------------|--------------------------|


  E  E  E  E  E  E  E  E     E  E  E  E  E  E  E  E     E  E  E  E  E  E  E  E   
--------------------------|--------------------------|--------------------------|
--------------------------|--------------0-----------|--------------3-----------|
--2--0-----0--2--0-----0--|-----0-----0-----0-----0--|--5--0-----0-----0-----0--|
--------4-----------4-----|--4-----4-----------4-----|--------4-----------4-----|
--------------------------|--------------7-----------|--5-----------5-----------|
--------------------------|--0-----------------------|--------------------------|


  E  E  E  E  E  E  E  E     E  E  E  E  E  E  E  E     E  E  E  E  E  E  E  E   
--------------------------|--------------------------|--------------------------|
--------------------------|--------------------------|--------------0-----------|
--0-----0-----0-----0-----|--------------0-----------|-----0-----0-----0-----0--|
-----2-----2-----2-----2--|--4-----4-----------7-----|--4-----4-----------4-----|
--3-----------------------|-----7-----7-----7-----7--|--------------7-----------|
--------------------------|--------------------------|--0-----------------------|


  E  E  E  E  E  E  E  E     E  E  E  E  E  E  E  E     E  E  E  E  E  E  E  E   
--------------------------|--------------------------|--------------------------|
--------------3-----------|--0-----------0-----------|--------------------------|
--5--0-----0-----0-----0--|-----0-----0-----0-----0--|--2--0-----0--2--0-----0--|
--------4-----------4-----|--------4-----------4-----|--------4-----------4-----|
--5-----------5-----------|--3-----------------------|--------------------------|
--------------------------|--------------------------|--------------------------|


  E  E  E  E  E  E  E  E     E  E  E  E  E  E  E  E     E  E  E  E  E  E  E  E   
--------------------------|--------------------------|--------------------------|
--------------0-----------|--------------3-----------|--------------------------|
-----0-----0-----0-----0--|--5--0-----0-----0-----0--|--0-----0-----0-----0-----|
--4-----4-----------4-----|--------4-----------4-----|-----2-----2-----2-----2--|
--------------7-----------|--5-----------5-----------|--3-----------------------|
--0-----------------------|--------------------------|--------------------------|


  E  E  E  E  E  E  E  E      E  E  E  E  E  E  E  E      E  E  E  E   E  E  E  E   
--------------------------|--12-----------0-----------|--10------------------------|
--------------------------|------0-----0-----0-----0--|------0-----0------0-----0--|
--------------0-----------|---------0-----------0-----|---------0------------0-----|
--4-----4-----------7-----|---------------------------|---------------12-----------|
-----7-----7-----7-----7--|---------------------------|----------------------------|
--------------------------|--12-----------------------|--10------------------------|


  E  E  E  E   E  E  E  E     E  E  E  E  E  E  E  E     E  E  E  E  E  E  E  E   
--8------------------------|--------------7-----5-----|--7-----------0-----------|
-----0-----0------0-----0--|--0-----------0-----------|-----0-----0-----0-----0--|
--------0------------0-----|-----0-----0-----0-----0--|--------0-----------0-----|
--------------10-----------|--------------------------|--------------------------|
---------------------------|--------7-----------7-----|--------------------------|
--8------------------------|--------------------------|--0-----------------------|


  ^                                                                              
  E  E  E  E  E  E  E  E     E  E  E  E  E  E  E  E     E  E  E  E  E  E  E  E   
--5-----------7-----------|--0-----------2-----------|--3-----------2-----------|
-----0-----0-----0-----0--|--1--0-----0-----0-----0--|--0-----------0-----------|
--7-----0-----7-----0-----|--------0-----------0-----|-----0-----0-----0-----0--|
--0-----------------------|--------------------------|--------2-----------2-----|
--------------------------|--3-----------------------|--------------------------|
--------------------------|--------------------------|--------------------------|


  W                  
-------------------||
--0----------------||
--0----------------||
--2----------------||
-------------------||
-------------------||




Duration Legend
---------------
W - whole
H - half
Q - quarter
E - 8th
S - 16th
T - 32nd
X - 64th
. - note dotted
|-n-|  - n-tuplets


Tablature Legend
----------------
L - tied note
x - dead note
g - grace note
(n) - ghost note
> - accentuded note
NH - natural harmonic
AH - artificial harmonic
TH - tapped harmonic
SH - semi harmonic
PH - pitch harmonic
h - hammer on
p - pull off
b - bend
br - bendRelease
pb - preBend
pbr - preBendRelease
brb - bendReleaseBend
\n/ - tremolo bar dip
\n - tremolo bar dive
-/n - tremolo bar Release up
/n\ - tremolo bar inverted dip
/n - tremolo bar return
-\n - tremolo bar Release down
S - shift slide
s - legato slide
/ -  slide into from below or out of upwards
\ -  slide into from above or out of downwards
~ - vibrato
W - wide vibrato
tr - trill
TP - tremolo picking
T - tapping
S - slap
P - pop
< - fade in
^ - brush up
v - brush down
Login or Register to remove this ad.

2 comments on Intro Theme (Markus Hopeful Piano)

Incredible.

5

I really do hope that you're planning on transcribing more of the Detroit soundtrack. I love it.

Nice

5

Please do the Kara and Connor theme. This sounds so good!