Ads

Bokura no Suteki (Detana!! TwinBee) Guitar Tab

Submitted: Oct 14, 2013 by tomorning (Last updated: Nov 18, 2013)

5
Average: 5 (2 votes)
Download | Listen
Game: Detana!! TwinBee
Composer(s): Michiru Yamane, Katsuki Maeda
Style: Arrangement, Fingerstyle, Natural harmonics

AutoScroll: Slow | Medium | Fast
                                   Bokura no Suteki ! 
                                  ( We're Awesome! )
                          ~ from game "Twinbee Paradise 2~ 

Music by Katsuki Maeda (前田 克樹)
Arranged by to*morning

Q = 78

E |--0--------0-----4--5-------|-----------5-----5--4--2----|--------2----^0-----4--2----|--------0-------------------|
B |--------2-------------------|----------------------------|--------3----^3-------------|-----2----------------------|
G |----------------------------|--------2-------------------|-----2----------------------|--------------------2-------|
D |----------------------------|-----4----------------------|--0----------^0-------------|-----------------2----------|
A |--0-------------------------|----------------------------|----------------------------|--4-------------------------|
E |--------------4-------------|--2-----------0-------------|----------------------------|--------------2-------------|



|--------2----4--5--5h7--0--|-----2--4--5----------------|--------1--1--1--3-----5----|-----3-----5----^7----------|
|--------3------------------|----------------------------|--------1--1--1--0-----1----|-----0-----1----^3----------|
|-----2---------------------|--------------------2-------|-----2----------------------|----------------------------|
|--0----------0-------------|-----------------2----------|--0-------------------------|----------------------------|
|---------------------------|--4-------------------------|----------------------------|----------------------------|
|---------------------------|--------------2-------------|----------------------------|----------------------------|



|------------------------------|----------------0h1----||
|--------------<12>------------|-----------------------||
|--------<12>----------<5>L----|-------0----0----------||
|--<12>------------------------|-----------------------||
|------------------------------|-----------------------||
|------------------------------|-----------------------||




|--1-----0--------------0----|-------------------0h1----|--1-----0--------------0----|-------------------0h1----|
|-----------1--3-----1-------|-----------0--------------|-----------1--3--1----------|-----------0--------------|
|--------0-----0-------------|--------0-----0-----------|--------0-----0-------------|--------0-----0-----------|
|-----2--------------2-------|-----2--------------------|-----2--------------2-------|-----0--------------------|
|--3-------------------------|--2-----------------------|--0-------------------------|--------------------------|
|----------------------------|--------------------------|----------------------------|--3-----------------------|



|--1-----0--------------0----|-----------------5-----5----|--------3--3--------0-------|-----------------3--3--3L---|
|-----------1--3.-1----------|--------1--1--1-------------|--------------0--------0----|-^2-------------------------|
|--------0-----0-------------|--------0-----------0-------|--------0--------0----------|-^0-------------------------|
|-----2-----------2----------|-----2----------------------|-----2-----2----------------|-^2-------------------------|
|--3-------------------------|--0-------------------------|----------------------------|-^0-------------------------|
|----------------------------|----------------------------|--0-------------------------|----------------------------|



|--------1-----0----0h1--0L--|--------------3--------3s5--|--------3-----1-----3--1L----|-----0--------0-----0--0h2--|
|-----------1----------------|-----3-----3----------------|--------0-----------0--------|-----------1-----3----------|
|--------2-----2-------------|--------2--------0--0-------|--------0--------------------|--------0-------------------|
|-----3---------------3------|-----0----------------------|-----2-----------3-----------|-----2----------------------|
|----------------------------|----------------------------|-----------------------------|--0-------------------------|
|--1-------------------------|--1-------------------------|--0-----------4--------------|----------------------------|



|--2-----------2-------------|--------------2>----5>------|--5>----------------4--5----|--7--------------0>----0>---||
|--------3-----------3-------|--------3>-------3-----3----|-----------5----------------|----------------------------||
|-----2-----2-----2-----2----|-----2-----2----------------|-----2--4-----------1--2----|--4-----4-----2-----4-------||
|--0-------------------------|--0-------------------------|----------------------------|-----6----------------------||
|----------------------------|----------------------------|----------------------------|--7-----------0-----2-------||
|----------------------------|----------------------------|--0-------------------------|----------------------------||





|--0--------0-----4--4s5-----|-----------------5---4--2--|--------2-----7-------------|----------------0--0--0h2--|
|--------2-------------0-----|-----------2------------2--|--------3-----------9--7----|-----5---------------------|
|--------2-------------------|--------2----------2----2--|-----2-----2-----7----------|--------4----3-------------|
|-----2-----------2-------2--|-----4-----------4---------|--0-----------0-------------|-----6----------4----------|
|--0-------------------------|---------------------------|----------------------------|--4----------------4-------|
|--------------4-------------|--2-----------0------------|----------------------------|-------------2-------------|



|--------------4--5--7--0L---|--------4--5----------------|-----------------0-----2----|-----0--0--------0>----0>---|
|-----------3----------------|-----7--------------2-------|--------3--3-----------3----|-----0.-0-------------------|
|--------2-------------------|--------4--------2----------|--------2--2-----------2----|-----2--2-----2-----4-------|
|-----4--------2-----0-------|-----6----------------------|-----4-----------4-----4----|-----2--2-------------------|
|--2-------------------------|--4-------------------------|--2-------------------------|--------------0-----2-------|
|----------------------------|--------------2-------------|----------------------------|----------------------------|




|--0--------0-----4--4s5-----|-----------------5--4--2----|--------2-----7-------------|-----------------0--0--2L---|
|--------2-------------0-----|-----------2--------2-------|--------3-----------9--7----|-----5----------------------|
|--------2-------------------|--------2--------------2----|-----2-----2-----7----------|--------4-----3-------------|
|-----2-----------2-------2--|-----4-----------4----------|--0-----------0-------------|-----6-----------4----------|
|--0-------------------------|----------------------------|----------------------------|--4-----------------4-------|
|--------------4-------------|--2-----------0-------------|----------------------------|--------------2-------------|


                                                            Q=102
   
|--2-----------4--5--7--0L---|--------4--5--^5L------------|--(5)----||
|-----------3----------------|-----7--------^2L------------|--(2)----||
|--------2-------------------|--------4-----^2L------------|--(2)----||
|-----4--------2-----0-------|-----6-----------------------|---------||
|--2-------------------------|--4--------------------------|---------||
|----------------------------|--------------^2L------------|--(2)----||


|--------1--1--1--3-----5L---|-----3-----5-----7----8L----||
|--------1--1--1--0----------|-----------------3----------||
|-----2-----------------5L---|-----4-----5----------------||
|--0-------------------------|----------------------------||
|----------------------------|----------------------------||
|-----------------------3----|-----3-----3-----3----------||


  c8------------------------/                               c1-------------------/
|-------------^8----------12----|--10----8--8-------------|--------------^1--3-------|--3-----1-----^0-------------|
|----------8--^10---------10----|-------------------------|--------3--4--^4----------|--------3-----^1--3--1--3L---|
|--------9----------------9-----|--------0--7-----5-------|-----3--------^3-----3----|-----2--------^2-------------|
|-----10--------------10--------|--------------------5----|--1-----------------------|--0-----------^0-------------|
|--8----------------------8-----|-----7-------------------|--------------------------|-----------------------------|
|-------------------------------|--0----------------------|--------------------------|-----------------------------|



|---------------0--1-----3--|--3h-1--8----------------5L--|-----------7--7--------5--|--4---------0-----0>----0>--|
|---------3-----------------|--1--------^6-----5h6-8------|-----------7--7-----------|---------0------------------|
|-------2----2--------2-----|--0--------^5----------------|-----------7--7-----------|-----0h2-------2-----4------|
|-----3---------------------|-----------------------------|--------------------------|----------------------------|
|--1------------------------|--0--------------------------|--------------------------|----------------------------|
|---------------------------|-----------^5----------------|--0>----------------------|--0------------2-----4------|



|--^9-----12----^12----------|--^10h9-----9-----0h-2--0L--|---------12---10h8--10-<12>-|-----3h-5--3----------------|
|--^9-----------^14----------|--^9-----12-------2---------|--------------8-------------|--0--------5----------------|
|------9---------------13----|--^9--------------1---------|--------9-----9-------------|--0--------4----------------|
|-------------------14-------|----------------------------|-----9----------------------|--2--------5----------------|
|--^0-----------^0-----------|--^0-----------0------------|----------------------------|--3--------3----------------|
|----------------------------|----------------------------|--8-------------------------|----------------------------|


                             
|------------5---------7-----5h7p5--|--4--5--7--0-----0-----0----||
|---------5---------5---------------|----------------------------||
|-------7--------7------------------|--------------2-----4-------||
|-----7-----------------------------|----------------------------||
|-----------------------------------|----------------------------||
|--0--------------------------------|--0~----------2-----4-------||




|--0--------0-----4--4s5-----|-----------------5---4--2--|--------2-----7-------------|------------------0--0--2L---|
|--------2-------------0-----|-----------2---------2-----|--------3-----------9--7----|-----5-----------------------|
|--------2-------------------|--------2----------2----2--|-----2-----2-----7----------|--------4.-^3----------------|
|-----2-----------2-------2--|-----4-----------4---------|--0-----------0-------------|-----6-----^4----------------|
|--0-------------------------|---------------------------|----------------------------|--4--------------------------|
|--------------4-------------|--2-----------0------------|----------------------------|-----------^2----------------|




|--------------4--5--7--0L---|--------4--5----------------|-----------------0-----2----|-----0--0--------0>----0>---|
|-----------3----------------|-----7--------------2-------|--------3--3-----------3----|-----0.-0-------------------|
|--------2-------------------|--------4--------2----------|--------2--2-----------2----|-----2--2-----2-----4-------|
|-----4--------2-----0-------|-----6----------------------|--------4--4-----4-----4----|-----2--2-------------------|
|--2-------------------------|--4-------------------------|--2-------------------------|----------------------------|
|----------------------------|--------------2-------------|----------------------------|--------------2-----4-------|



|--0--------0-----4--4s5-----|-----------------5---4--2--|--------2-----7-------------|------------------0--0--2L---|
|--------2-------------0-----|-----------2---------2-----|--------3-----------9--7----|-----5-----------------------|
|--------2----------------2--|--------2----------2----2--|-----2-----2-----7----------|--------4.-^3----------------|
|-----2-----------2----------|-----4-----------4---------|--0-----------0-------------|-----6-----^4----------------|
|--0-------------------------|---------------------------|----------------------------|--4--------------------------|
|--------------4-------------|--2-----------0------------|----------------------------|-----------^2----------------|


  rit......................................................
|--2-----------4--5--7--0L---|--------4--5--^5-------------||
|-----------3----------------|-----7--------^2-------------||
|--------2-------------------|--------4-----^2-------------||
|-----4--------2-----0-------|-----6-----------------------||
|--2-------------------------|--4--------------------------||
|----------------------------|--------------^2-------------||


 (rit).......................................................fermete
|--------1--1--1--3-----5L---|-----3-----5-----7----------|----------||
|--------1--1--1--0-----1L---|-----0-----1-----3----------|--^<12>---||
|-----2----------------------|----------------------------|--^<12>---||
|--0-------------------------|----------------------------|--^<12>---||
|----------------------------|----------------------------|----------||
|----------------------------|----------------------------|----------||fin


Legend
L - tied note
x - dead note
h - hammer on/pull off
b - bend
s - slide
~ - vibrato
g - ghost note
> - accentuated note
t - trill
M - palm mute
. - staccato
P - popping (bass)
S - slapping (bass)
+ - tapping
W - wide vibrato
< - fade in
w - whammy bar
= - tremolo picking
v - brush up
^ - brush down
V - pick stroke up
n - pick stroke down

Login or Register to remove this ad.

2 comments on Bokura no Suteki

this arrange refer to

this arrange refer to "Twinbee Paradise Sound Fantasia" .
original tunes Guitar Duo + Cajón

Pretty nice stuff here

5

Pretty nice stuff here