Ads

A Town Called Hometown (Deltarune) Guitar Tab

Submitted: Jul 11, 2021 by JordanVS (Last updated: Jul 20, 2021)

0
Download | Listen
Game: Deltarune
Composer(s): Toby Fox
Style: Arrangement, Fingerstyle

AutoScroll: Slow | Medium | Fast
A Town Called Hometown                                             
Deltarune
Toby Fox
JordanVS

Tempo: 140 ~ 3/4

     Q    Q    Q       Q    Q    Q       Q    E  E  Q       Q    Q    Q       Q    Q    Q     
E||--0--------------|-----------------|------------------|--3--------------|--0--------------|
B||-----------------|--0--------------|----------0--1----|-----------------|-----------------|
G||-------0----0----|-------0----0----|--2----------0----|-------0----0----|-------0----0----|
D||-------2----2----|-------2----2----|-------3-----3----|-------3----3----|-------2----2----|
A||--3--------------|--3--------------|--3---------------|--3--------------|--3--------------|
E||-----------------|-----------------|------------------|-----------------|-----------------|


  Q    Q    Q       Q    E  E  Q       Q    Q    Q       Q    Q    Q       Q    Q    Q       Q    E  E  Q     
-----------------|------------------|--7--------------|--0--------------|-------3----5----|------------------|
--0--------------|----------0--1----|-----------------|-----------------|--0--------------|----------0--1----|
-------0----0----|--2----------0----|-------0----0----|-------0----0----|-------0----0----|--2----------0----|
-------2----2----|-------3-----3----|-----------------|-------2----2----|-------2----2----|-------3-----3----|
--3--------------|--3---------------|-------8----8----|--3--------------|--3--------------|--3---------------|
-----------------|------------------|--8--------------|-----------------|-----------------|------------------|


  Q    Q    Q       Q.     E   Q       H        Q       Q    Q    Q        H.              Q    Q    Q     
--5----3----1----|--0------1p--0----|----------------|------------------|---------------|--0--------------|
------------0----|--1---------------|--3--------1----|--1---------------|--L------------|--1---------3----|
-----------------|------------------|--0-------------|-------0----------|---------------|--0---------0----|
--3----2----0----|--3---------------|----------------|------------3h----|--2------------|-------2---------|
-----------------|------------------|----------------|------------------|---------------|--3--------------|
-----------------|------------------|----------------|------------------|---------------|-----------------|


  Q    E  E  Q       Q    Q    Q       Q    Q    Q       Q    Q     Q       Q    Q     Q     
--0-------1--3----|--8--------------|-------7----8----|--7---------------|------------------|
--0---------------|--5--------------|------------5----|------------10----|--8---------------|
--0----------0----|------------5----|-------7---------|--7---------------|-------7----10----|
-------2----------|-------7---------|--5--------------|-------7----10----|--9---------------|
--2---------------|--0--------------|-----------------|--8---------------|--7---------------|
------------------|-----------------|-----------------|------------------|------------------|


  Q    E  E  Q       H        Q       Q    Q    Q       Q    E  E  Q       Q    Q    Q       H        Q     
------------------|-----------0----|-----------------|------------------|--7---------5----|----------------|
--5-------6--5----|--3-------------|--1---------0----|----------3--5----|--5--------------|--5-------------|
-------5----------|--0-------------|------------0----|--5---------------|-------7----7----|--5--------5----|
-------5----------|-----------3----|-------2---------|-------3-----5----|--5--------------|--4-------------|
--5----------5----|----------------|--0--------------|------------------|-----------------|----------------|
------------------|--3--------4----|-----------------|--4---------------|-----------------|----------------|


  H.              Q    Q    Q       Q.     E   Q       Q    Q    Q       Q    Q    Q       Q    E  E  Q     
---------------|-----------------|--0------1p--0----|-----------------|--0--------------|--0-------1--3----|
---------------|-------5---------|------------------|--3--------------|--1---------3----|--0---------------|
--5------------|------------5----|--0---------------|-------0---------|--0---------0----|--0----------0----|
--3------------|--4---------4----|------------------|--3---------0----|-------2---------|-------2----------|
---------------|-----------------|------------------|-----------------|--3--------------|--2---------------|
---------------|-----------------|------------------|--3--------------|-----------------|------------------|


  Q    Q    Q       Q    Q    Q       Q    Q     Q       Q    Q     Q       Q    E  E  Q       H        Q     
--8--------------|-------7----8----|--7---------------|------------------|------------------|-----------0----|
--5--------------|------------5----|------------10----|--8---------------|--5-------6--5----|--3-------------|
------------5----|-------7---------|--7---------------|-------7----10----|-------5----------|--0-------------|
-------7---------|--5--------------|-------7----10----|--9---------------|-------5----------|-----------3----|
--0--------------|-----------------|--8---------------|--7---------------|--5----------5----|----------------|
-----------------|-----------------|------------------|------------------|------------------|--3--------4----|


  Q    Q    Q       Q    E  E  Q       Q    Q    Q       H        Q       H.              Q    Q    Q     
-----------------|------------------|--7---------5----|----------------|---------------|-----------------|
--1---------0----|----------3--5----|--5--------------|--5-------------|---------------|-------0---------|
--2---------0----|--5---------------|--5----7----7----|--5--------5----|--5------------|------------5----|
-------2---------|-------3----------|--5---------5----|--4-------------|--7------------|--4---------4----|
--0---------0----|------------------|-----------------|----------------|--8------------|-----------------|
-----------------|--4----------4----|-----------------|----------------|---------------|-----------------|


  Q.     E   Q       Q    Q    E  E     Q    Q    Q       Q    E  E  E  E     Q    Q    Q     
--0------1p--0----|------------0-----|-----------------|--0-------1--------|-----------------|
------------------|--3------------0--|--1--------------|-------------3--1--|--1--------------|
--0---------------|-------0----------|------------0----|-------------0-----|-----------------|
------------------|--3---------0-----|-------2---------|-------2-----------|------------2----|
------------------|------------------|--0--------------|-------------------|-------3---------|
------------------|--3---------------|-----------------|--3----------------|--1--------------|


  Q    Q    E  E     Q    Q    Q       Q    E  E  E  E     Q    Q    Q       Q    Q    Q     
------------0-----|-----------------|--0-------1--------|-------8----7----|--3----0---------|
---------------3--|--1--------------|-------------3--1--|--1--------------|------------3----|
------------0-----|------------0----|-------------0-----|-----------------|------------0----|
------------2-----|-------2---------|-------2-----------|-----------------|------------2----|
-------3----------|--0--------------|-------------------|------------7----|-------3---------|
--1---------------|-----------------|--3----------------|--1----8---------|--1--------------|


  Q    Q    Q       Q    E  E  E  E     Q    Q    Q       Q    Q    Q       Q    Q    Q     
-----------------|--0-------1--------|-----------------|--0----1----3----|-----------------|
--1--------------|-------------3--1--|--1----1----3----|-----------------|--1--------------|
------------0----|-------------0-----|-----------------|------------0----|------------0----|
-------2---------|-------2-----------|------------2----|------------2----|-------2---------|
--0--------------|-------------------|-------3---------|-------3---------|--0--------------|
-----------------|--3----------------|--1--------------|--1--------------|-----------------|


  Q    E  E  E  E     Q    Q    Q       Q    E  E   E  E     Q    Q    Q       H        Q     
--0-------1--------|-----------------|--0--------------0--|-----------------|--3--------0----|
-------------3--1--|--1--------------|----------3p--1-----|--3--------------|----------------|
-------------0-----|--2---------2----|-------2------------|--0--------------|--4--------0----|
-------2-----------|--0----4---------|--4-----------------|------------0----|--5-------------|
-------------------|-----------------|--------------------|-------3---------|----------------|
--3----------------|-----------------|--------------------|--3--------------|----------------|


  Q    E  E  Q       Q    Q    Q       Q    Q    Q       Q.     E   E  E     Q    Q    Q       H.            
-------------5----|-----------------|-----------------|-------------------|------------8----|---------------|
--6-------8-------|--8--------------|-------8----8----|--8------6p--5--6--|--8--------------|--8------------|
-------------5----|--4----5----7----|------------5----|--7----------------|------------5----|--7------------|
-------7----------|-----------------|-------5---------|-------------------|-------5---------|---------------|
--5---------------|-----------------|--7--------------|-------------------|--8--------------|---------------|
------------------|-----------------|-----------------|-------------------|-----------------|---------------|


  Q    Q    Q       Q.     E   E  E     Q    Q    Q       H.              Q    Q    Q       Q.     E   E  E   
-----------------|-------------------|--3--------------|---------------|-----------------|-------------------|
-------8----8----|--8------6p--5--6--|-------3---------|---------------|-------8----8----|--8------6p--5--6--|
------------5----|--7----------------|------------4----|--5------------|------------5----|--7----------------|
-------5---------|-------------------|--5--------------|--7------------|-------5---------|-------------------|
--7--------------|-------------------|-----------------|---------------|--7--------------|-------------------|
-----------------|-------------------|-----------------|---------------|-----------------|-------------------|


  Q    Q    Q       H        E   E     Q    Q    Q       Q    Q.     E      Q     E   E   E   E   
------------8----|------------------|--1----0---------|-----------------|--------12--10---8--10--|
--8--------------|--8--------1h--3--|------------1----|-------1------0--|------------------------|
------------5----|--7---------------|------------2----|--0--------------|---------9--------------|
-------5---------|------------------|--0----3---------|-----------------|--10------------10------|
--8--------------|------------------|-----------------|-----------------|---0--------------------|
-----------------|------------------|-----------------|--3--------------|------------------------|

                                                                                                  *Da Capo
                                                                                     NH            
   H         E   E      Q     Q     Q        Q     Q.      E      H.                 H.            
--12------------10--|--13----12----------|--------------------|----------------|------------------|
------------13------|--------------13----|--------13------12--|--13------------|------------------|
---0----------------|--10----------------|--12----------------|----------------|--<>12------------|
--------------------|--------------------|--------------------|--10------------|--<>12------------|
--------------------|--------------------|--------------------|----------------|------------------|
--------------------|--------------------|--------------------|----------------|------------------|


  Q    Q    Q       Q    Q    Q       Q    E  E  Q       Q    Q    Q       Q    Q    Q       Q    Q    Q     
--0--------------|-----------------|------------------|--3--------------|--0--------------|-----------------|
-----------------|--0--------------|----------0--1----|-----------------|-----------------|--0--------------|
------------0----|------------0----|--2----------0----|------------0----|------------0----|------------0----|
-------2---------|-------2---------|-------3----------|-------3---------|-------2---------|-------2---------|
--3--------------|--3--------------|--3---------------|--3--------------|--3--------------|--3--------------|
-----------------|-----------------|------------------|-----------------|-----------------|-----------------|


  Q    E  E  Q       Q    Q    Q       Q    Q    Q       Q    Q    Q       Q    E  E  Q       Q    Q    Q     
------------------|--7--------------|--0--------------|-------3----5----|------------------|--5----3----1----|
----------0--1----|-----------------|-----------------|--0--------------|----------0--1----|------------0----|
--2----------0----|------------0----|------------0----|------------0----|--2---------------|-----------------|
-------3----------|-----------------|-------2---------|-------2---------|-------3-----3----|--3----2----0----|
--3---------------|-------8---------|--3--------------|--3--------------|--3---------------|-----------------|
------------------|--8--------------|-----------------|-----------------|------------------|-----------------|


  Q.     E   Q       H        Q       Q    Q    Q        H.              H.             
--0------1p--0----|----------------|------------------|---------------|---------------||
--1---------------|--3--------1----|--1---------------|--L------------|---------------||
------------------|--0-------------|-------0----------|---------------|---------------||
--3---------------|----------------|------------3h----|--2------------|---------------||
------------------|----------------|------------------|---------------|--3------------||
------------------|----------------|------------------|---------------|---------------||




Duration Legend
---------------
W - whole
H - half
Q - quarter
E - 8th
S - 16th
T - 32nd
X - 64th
. - note dotted
|-n-|  - n-tuplets


Tablature Legend
----------------
L - tied note
x - dead note
g - grace note
(n) - ghost note
> - accentuded note
NH - natural harmonic
AH - artificial harmonic
TH - tapped harmonic
SH - semi harmonic
PH - pitch harmonic
h - hammer on
p - pull off
< - fade in
^ - brush up
v - brush down
Login or Register to remove this ad.