Ads

My Castle Town (Deltarune) Guitar Tab

Submitted: Nov 04, 2021 by ajarthur (Last updated: Nov 12, 2021)

4
Average: 4 (1 vote)
Download | No audio :(
Game: Deltarune
Composer(s): Toby Fox
Style: Arrangement, Fingerstyle

AutoScroll: Slow | Medium | Fast
My Castle Town

Composed - Toby Fox
Arranged - Alan Arthur

Capo 5

 E  E  E  E  E  E    E  E  E  E  E  E    E  E  E  E  E  E    E  E  E  E  E  E   
-------------------|-------------------|-------------------|-------------------|
-------------------|-------------------|-------------------|-------------------|
-------------------|-------------------|-------3--------1--|-0-----------------|
-------1--0--1-----|-3-----------1-----|-3-----------0-----|-1-----------------|
-3-----------------|-------0-----3-----|-1--------------3--|-------1------1----|
-------------------|-1-----------------|-------------------|-------3------3----|

 E  E  E  E  E  E    E  E  E  E  E  E    E  E  E  E  E  E    E  E  E  E  E  E   
-------------------|-------------------|-------------------|-------------------|
-------------------|-------4-----3-----|-3-----------------|-------------------|
-------0-----0-----|-1-----------------|-------3--------1--|-0-----------------|
----------3--------|-------------------|-------------0-----|-1-----------------|
-3-----------------|-------------------|-1-----------------|-------1-----1-----|
-------------------|-1-----4-----4-----|-------------------|-------3-----3-----|

 E  E  E  E  E  E    E  E  E  E  E  E     E  E  E  E  E  E    E  E  E  E  E  E  
-------------------|-------------------|-------------------|-------------------|
-------------------|-------------------|-------------------|-------------------|
-------------------|-------------------|-------3--------1--|-0-----------------|
-------1--0--1-----|-3-----------1-----|-3-----------0-----|-1------------1----|
-3-----------------|-------0-----3-----|-1--------------3--|-------1-----------|
-------------------|-1-----------------|-------------------|-------3------3----|

  E  E  E  E  E  E    E  E  E  E  E  E    E  E  E  E  E  E   W  
-------------------|-------------------|-------------------|-------------------|
-------------------|-4--------3--------|-1-----------------|-------------------|
-------------0-----|-------------3-----|-------0-----------|-0-----------------|
-------1-----------|-------------0-----|-------------1--3--|-0-----------------|
-3-----------3-----|-------1-----------|-------3-----------|-2-----------------|
-1-----4-----------|-3-----------------|-4-----------------|-------------------|

    E  E  E  E  E  E    E  E  E  E  E  E    E  E  E  E  E  E    E  E  E  E  E  E     
||-----------------3--|-11----------10----|-------------------|-------------------|
||--------------4-----|-------------------|-11----------------|-8-----------------|
||*-5-----0-----0-----|-------------------|-------------10----|-------------------|
||*-------------------|-------10----10----|-------12-10-------|-------0-----0-----|
||--3-----------------|-8-----------------|-13----------------|-6-----------------|
||--------------------|-------------------|-------------------|-------------------|

 E  E  E  E  E  E    E  E  E  E  E  E    E  E  E  E  E  E    E  E  E  E  E  E   
-3-----------4--6--|-4-----------3-----|-1-----------------|-3-----------------|
-------------------|-------------------|----------4--3--4--|-3-----------------|
-------0-----0-----|-------1-----1-----|-------3-----------|-------------------|
-------------------|-3-----------------|-------------------|-1-----0-----0-----|
-3-----------------|-------------------|-1-----------------|-------------------|
-------------------|-------------------|-------------------|-------------------|

 E  E  E  E  E  E    E  E  E  E  E  E    E  E  E  E  E  E    E  E  E  E  E  E   
----------------3--|-11----------10----|-------------------|-------------------|
-------------4-----|-------------------|-11----------------|-8-----------------|
-5-----0-----0-----|-------------------|-------------10----|-------------------|
-------------------|-------10----10----|----------12-10-8--|-------0-----0-----|
-3-----------------|-8-----------------|-13----------------|-6-----------------|
-------------------|-------------------|-------------------|-------------------|

 E  E  E  E  E  E    E  E  E  E  E  E     E  E  E  E  E  E    E  E  E  E  E  E   
-3-----4--------6--|-4-----------3-----|-1--------------1--|-3-----------------||
-------------6-----|-6-----------------|-------------4-----|-------------------||
-------------------|-3-----------------|-------1-----------|------------------*||
-3-----------------|-------3-----3-----|-0-----------------|-0-----1-----3----*||
-------3-----3-----|-------------------|-------------------|-------------------||
-------------------|-------------------|-------------------|-3-----3-----3-----||

    E  E  E  E  E  E    E  E  E  E  E  E    E  E  E  E  E  E    E  E  E  E  E  E     
||--------10-11-10-8--|-------------------|-------10-11-10-8--|-13----------------|
||--------------------|-8-----------8-----|-------------------|-------------------|
||*-------0-----0-----|-------8-----8-----|-------0-----0-----|-------------------|
||*-10----------------|-------------------|-------------------|-------12----12----|
||--------------------|-------------------|-------------------|-13----------------|
||--8-----------------|-8-----------------|-6-----------------|-------------------|
		   			           4     4  2  1  2	
				      	     3     1     1
 E  E  E  E  E  E    E  E  E  E  E  E    E  E  E  E  E  E    E  E  E  E  E  E     
-------10-11-10-8--|-10----------11----|-6-----6--4--3--4--|-3-----------------|
-------------------|-------------------|-------------------|-------------------|
-------------------|-------10----10----|-------3-----3-----|-------3-----3-----|
-------10----10----|-8-----------------|-------------------|-------------------|
-8-----------------|-------------------|-6-----------------|-------1-----1-----|
-------------------|-------------------|-------------------|-0-----------------|

 E  E  E  E  E  E    E  E  E  E  E  E    E  E  E  E  E  E    E  E  E  E  E  E   
-------3--4--3--1--|-------------4-----|-3-----3--1-----1--|-3-----------------|
-------------------|-3-----------------|-------------4-----|-------------4-----|
-------------------|-------3-----3-----|-------3-----3-----|-------0-----------|
-------------------|-------------------|-1-----------------|-------2-----------|
-------3-----3-----|-1-----------------|-------------------|-3-----------------|
-1-----------------|-------------------|-------------------|-------------------|

 E  E  E  E  E  E      E  E  E  E  E  E    E  E  E  E  E  E    E  E  E  E  E  E   
-2-----------------|-------------2-----|-3-----------------|------------------||
-------3-----------|-------------------|-------------------|-------------0----||
-------------5-----|-------------------|-------0-----0-----|-0-----2---------*||
-------------------|-4-----1-----1-----|-------------------|-----------------*||
-------0-----0-----|-0-----------------|-------------------|------------------||
-2-----------------|-------------------|-3-----------------|-3----------------||

 E  E  E  E  E  E    E  E  E  E  E  E    E  E  E  E  E  E    E  E  E  E  E  E     
-------------------|----------1--3-----|-3-----------3--4--|-------13----10----|
-1-----4--3--4-----|-4-----------------|----------6--------|-11----------------|
-------------------|-------------------|-------------------|-------------------|
-------------------|-------------------|-------------------|-------------------|
-3-----------------|-1-----------------|-------------------|-10----------------|
-------------------|-------------------|-4-----------------|-------------------|

 E  E  E  E  E  E    E  E  E  E  E  E    E  E  E  E  E  E    E  E  E  E  E  E    
-11----------------|-------------------|-3-----1-----------|-------------------|
-------------------|----------6--8-----|-------------4-----|-3--------1--------|
-------8--7--8-----|-8-----------------|-------------------|-------------4-----|
-------------------|-------------------|-------------------|-------------------|
-------------------|-------------------|-------------------|-------------------|
-8-----------------|-6-----------------|-4-----------------|-3-----------------|

 E  E  E  E  E  E    E  E  E  E  E  E    E  E  E  E  E  E    E  E  E  E  E  E     
-3-----------------|-6-----------------|-8-----------------|-10----------------|
-------4--3--4-----|-------6-----8-----|-8--------6--8--9--|----------------11-|
-------------------|-8-----------------|-------------------|-------------12----|
-------------------|-------------------|-------------------|-------------------|
-3-----------------|-------------------|-------------------|-10----------------|
-------------------|-6-----------------|-4-----------------|-------------------|

 E  E  E  E  E  E    E  E  E  E  E  E    E  E  E  E  E  E    W     
-8-----------11----|-10----------8-----|-6--------4--3-----|-3------------------||
-------------------|-------------------|----------------6--|-3------------------||
-------------8-----|-------------8-----|-------------3-----|-0------------------||
-------8-----------|-------------------|-------3-----------|-0------------------||
-6-----------------|-------10----------|-4-----------------|-2------------------||
-------------------|-11----------------|-------------------|-3------------------||
Login or Register to remove this ad.

1 comment on My Castle Town

personally I think this

4

personally I think this sounds better without a capo but its a p good tab