Ads

Fields of Hopes and Dreams (Deltarune) Guitar Tab

Submitted: Jun 12, 2021 by FocusShallNotFail (Last updated: Jun 24, 2021)

0
Download | No audio :(
Game: Deltarune
Composer(s): Toby Fox
Style: Arrangement, Fingerstyle

Click here for a video example.

AutoScroll: Slow | Medium | Fast
Title: Deltarune - Fields of Hopes and Dreams
Artist: 
Album: 
Author: Arrangement: Eduardo Barelli


Track 1: DELTARUNE

E|-6-----------------8---6-----------------8---|-6-----------------8---10--8-108--6---8---|
B|-8--8--------8---------8--8--------8---------|-8--8--------8---------8------------------|
G|-------7--0-----7------------7--0-----7------|-------7--0-----7-------------------------|
D|---------------------------------------------|------------------------------------------|
A|---------------------------------------------|------------------------------------------|
E|---------------------------------------------|------------------------------------------|


E|-6-----------------8---6-----------------8---|-6-----------------8---10--8-108--6---8---|
B|-8--8--------8---------8--8--------8---------|-8--8--------8---------8------------------|
G|-------7--0-----7------------7--0-----7------|-------7--0-----7-------------------------|
D|---------------------------------------------|------------------------------------------|
A|---------------------------------------------|------------------------------------------|
E|---------------------------------------------|------------------------------------------|


E|-6-----------------8---6-----------------8---|-6-----------------8---10--8-108--6---8---|
B|-8---------------------8---------------------|-8---------------------8------------------|
G|----8--------8------------8--------8---------|----8--------8----------------------------|
D|-------8--------8------------8--------8------|-------8--------8-------------------------|
A|----------6---------------------6------------|----------6-------------------------------|
E|---------------------------------------------|------------------------------------------|


E|-6-----------------8---6-----------------8---|-6-----------------8---10--8-108--6---8---|
B|-8---------------------8---------------------|-8---------------------8------------------|
G|----8--------8------------8--------8---------|----8--------8----------------------------|
D|-------8--------8------------8--------8------|-------8--------8-------------------------|
A|----------6---------------------6------------|----------6-------------------------------|
E|---------------------------------------------|------------------------------------------|


E|---------------5---------------5---|---------------5---6---5-6-5------5---|---------------5---------------5---|
B|-6-----------------6---------------|-6----------------------------6-------|-6-----------------6---------------|
G|-----------------------------------|--------------------------------------|-----------------------------------|
D|-5------5------3---5---5---0---3---|-5------5------3---5---5------5---3---|-5------5------3---5---5---0---3---|
A|-----------X-----------------------|-----------X--------------------------|-----------X-----------------------|
E|-----------X-----------------------|-----------X--------------------------|-----------X-----------------------|


E|---------------5---6---5-6-5------5---|-6-------------5---------------------|-----------------------------------|
B|-6----------------------------8-------|-------------------6-------------4---|-3-------------1-------1---3---4---|
G|--------------------------------------|-------------------------------------|-------------------3---------------|
D|-5------5------3---5---5------5---3---|---------------------------------3---|-1------1------0---1---1---1---3---|
A|-----------X--------------------------|-6------6--X---5---6------6----------|-----------X-----------------------|
E|-----------X--------------------------|-----------X-------------------------|-----------X-----------------------|


E|-------------------3-----------------|-5-----------------6---5-6-5-------5---|-6-----------------6---5-6-5--3---5---|
B|-6-----------------------------------|-------------------------------8-------|-4------------------------------------|
G|---------------3-----------------3---|---------------3-----------------------|--------------------------------------|
D|---------------------------------3---|-----------------------------------3---|---------------5----------------------|
A|-6------6--X---5---6------6----------|-6------6--X---5---6---6-------6-------|-3------3----------3------------------|
E|-----------X-------------------------|-----------X---------------------------|--------------------------------------|


E|-6-----------------6---5-6-5------5---|-6-------------5---------------------|-----------------------------------|
B|-6----------------------------8-------|-6-----------------6-------------4---|-3-------------------------3---4---|
G|--------------------------------------|-------------------5-----------------|---------------5---3---5-----------|
D|---------------7----------------------|-------------------3------3----------|-5------5----------3-------3-------|
A|-5------5----------5------------------|-6------6----------------------------|-----------------------------------|
E|--------------------------------------|-------------------------------------|-----------------------------------|


E|-1---1-----1---1---1---------------|-----------------------6---5-------|-------------------------------------|
B|-3---3-----1---1---------------3---|-1---1-----1---1-----------3---6---|-------------------3---4-------------|
G|-------------------3-------3-------|-2---2-----0---0---5-----------5---|-3-------------------------5------3--|
D|-----------------------------------|-0------0------0---3---------------|-1------1------3---3-------4---------|
A|-3------3------3-------3-----------|-----------------------5-----------|-------------------------------------|
E|-----------------------------------|-----------------------------------|-------------------------------------|


E|-----------------------------------|---------------------------------|-----------------------------------|
B|---------------------------3---4---|-6---6---6---6---6-----------3---|-1---1---1---1---1-----------3--1--|
G|-3-----------------3---5-----------|-------------------------3---0---|-----2-------2-------2-------2-----|
D|-5------5------3-------------------|-----5-------5-------5-----------|-3---------------3-----------------|
A|-----------------------------------|-6---------------6-------1-------|---------3---------------3---------|
E|-----------------------------------|---------6-----------------------|-----------------------------------|


E|-------------------------5---6---|-5---------------------|---------------------------------|
B|---------------------------------|-6-----6---3-----3--4--|-6---6---6---6---6-----------3---|
G|-3---3-------3---3---------------|-5---------3-----------|-------------------------3---0---|
D|-5---------------5---------------|-0---------5-----------|-----5-------5-------5-----------|
A|---------5-----------------------|-----------------------|-6---------------6-------1-------|
E|---------------------------------|-----------------------|---------6-----------------------|


E|---------------------------------|---------------------------------|------------------------------|
B|-1---1---1---1---1-------3---1---|-3---3---3---3---3-------4---3---|------------------1---3---4---|
G|-----2-------2-------2-------2---|-----3-------3-------3-------3---|-5------------3---2---3---5---|
D|-3---------------3---------------|---------3---------------3-------|-3--------3---3---------------|
A|---------3---------------3-------|-1---------------1---------------|----------5-------------------|
E|---------------------------------|---------------------------------|------------------------------|


E|-----------------------------------|----------------------------------|---------------------------5---6---|
B|-6---6-----6---6---6-----------3---|-1---1-----1---1---1--------3--1--|-----------------------------------|
G|-7---7-----5---5-------------------|-2---2-----0---0---0--------------|-3---3-----3---3---3---------------|
D|-------------------8-------8-------|-3------3------3---3--------------|-5---5-----3---3---0---------------|
A|-6------6------6-------6-----------|----------------------------------|-----------------------------------|
E|-----------------------------------|----------------------------------|-3------3------3-------3-----------|


E|-5---------------------|-----------------------------------|-----------------------------------|
B|-6-----6---3-----3--4--|-6---6-----6---6---6-----------3---|-1---1-----1---1---1-------3---1---|
G|-5---------3-----------|-7---7-----5---5-------------------|-2---2-----0---0---0---------------|
D|-0---------5-----------|-------------------8-------8-------|-3------3------3---3---------------|
A|-----------------------|-6------6------6-------6-----------|-----------------------------------|
E|-----------------------|-----------------------------------|-----------------------------------|


E|---------------------------------------|-------------------------------------|---------------------------------------|
B|-------------------3---4---------------|-------------------3---4-----1-------|-------------------3---4---------------|
G|-3---------------------------5------3--|-3-------------------------------3---|-3---------------------------5------3--|
D|---------------3---3------4------------|-5------5------0---3------0----------|---------------3---3------4------------|
A|-3------3------------------------------|-------------------------------------|-3------3------------------------------|
E|---------------------------------------|-------------------------------------|---------------------------------------|


E|---------------------------1---5---|-------------5---------------5---|--------------10--8-108--6---8---|
B|-------------------3---4-----------|-6---------------6-----------3---|-6-------------------------------|
G|-3---------------------------------|-7-----------5---3---------------|-5--------10---------------------|
D|-5------5------0---3-------0-------|---------------------------------|-3-------------------------------|
A|-----------------------------------|-6-------------------------------|---------------------------------|
E|-----------------------------------|---------------------------------|---------------------------------|


E|-------------------------------------|--------------------------------------|---------------1-------------3-------|
B|-----------------------3---------1---|--------3-1---------------------------|---------------------------------3---|
G|-3-----------------------------------|------------3------3-------2----------|-2------3----------------------------|
D|-----------------------------3-------|--------------------------------------|-------------------------------------|
A|-------------------------------------|--------------------------------------|-------------------------------------|
E|-3------3------1---3------3------1---|-3------3------1---3---3---3---1------|-3------3------1---3------3------1---|


E|-----------6-------5---------------|--------------------------6------5---|-1-------------3-1--------------------|
B|---------------------------6---1---|--------1------3---8-----------------|----------------------3---------------|
G|---------------3-------5-----------|-3-----------------------------------|------------------------------3-------|
D|-----------------------------------|-1------1------0---------------------|-1------1------0------1---1---1---3---|
A|-----------------------------------|-------------------6------6------5---|--------------------------------------|
E|-3------3------1---3---3---3---1---|-------------------------------------|--------------------------------------|


E|-------------------------------------|-----------------------------------|-6-----------------6---5-6-5--3---5---|
B|-1------3------3-----------------1---|-----------------------------------|-4------------------------------------|
G|-----------------------------0-------|-------------------3-------2-------|--------------------------------------|
D|-1------1------0---1------1------0---|-1------1------0---1---1---1---3---|---------------5----------------------|
A|-------------------------------------|-----------------------------------|-3------3----------3------------------|
E|-------------------------------------|-----------------------------------|--------------------------------------|


E|-6-----------------6---5-6-5------5---|-6-------------5---------------------|-----------------------------------|
B|-6----------------------------8-------|-6-----------------6-------------4---|-3-------------------------3---4---|
G|--------------------------------------|-------------------5-----------------|---------------5---3---5-----------|
D|---------------7----------------------|-------------------3------3----------|-5------5----------3-------3-------|
A|-5------5----------5------------------|-6------6----------------------------|-----------------------------------|
E|--------------------------------------|-------------------------------------|-----------------------------------|


E|-1---1-----1---1---1---------------|-----------------------6---5-------|-------------------------------------|
B|-3---3-----1---1---------------3---|-1---1-----1---1-----------3---6---|-------------------3---4-------------|
G|-------------------3-------3-------|-2---2-----0---0---5-----------5---|-3-------------------------5------3--|
D|-----------------------------------|-0------0------0---3---------------|-1------1------3---3-------4---------|
A|-3------3------3-------3-----------|-----------------------5-----------|-------------------------------------|
E|-----------------------------------|-----------------------------------|-------------------------------------|


E|-------------------3----5----|-6---------6---5-6-5--3---5---|-6---------6---5-6-5--3---5---|
B|-----------------------------|-4---------6------------------|-8---------6------------------|
G|-3-----------------3----5----|------------------------------|------------------------------|
D|-5------5------3-------------|------------------------------|------------------------------|
A|-----------------------------|------------------------------|------------------------------|
E|-----------------------------|------------------------------|------------------------------|


E|-6--------5----------------|------------------------------|------------------------------|
B|-4------------6--------4---|-3--------------------3---4---|-6---6---6---6---6------------|
G|--------------5------------|----------5---3---5-----------|-7---7---5---5------------7---|
D|---------------------------|-5------------3---------------|-----------------8----8-------|
A|---------------------------|------------------------------|-6----------------------------|
E|---------------------------|------------------------------|------------------------------|


E|------------------------------|--------------------------------|--------|
B|-1---1---1---1---1----3---1---|--------------3---4-------------|--------|
G|-2---2---0---0---0------------|-3--------------------5------3--|-3------|
D|-3---------------3------------|-1--------3---3-------4---------|-5------|
A|------------------------------|--------------------------------|--------|
E|------------------------------|--------------------------------|--------|



Login or Register to remove this ad.