Ads

Empty Town (Deltarune) Guitar Tab

Submitted: Sep 02, 2022 by JordanVS (Last updated: Sep 08, 2022)

5
Average: 5 (2 votes)
Download | Listen
Game: Deltarune
Composer(s): Toby Fox
Style: Arrangement, Fingerstyle

AutoScroll: Slow | Medium | Fast
Empty Town                                              
Deltarune
Toby Fox
JordanVs

Tempo: 3/4 ~ 168

Download Link: https://www.mediafire.com/file/vnmm328nkzt38tz/Empty_Town_-_Deltarune.zi...


     Q    Q    E  E     Q    Q    Q       Q    Q    Q       Q    Q    Q       Q    Q    E  E   
E||------------------|--8---------7----|--3--------------|--0--------------|--0---------1--3--|
B||---------------5--|-----------------|------------3----|-----------------|------------------|
G||------------5-----|-----------------|-----------------|-----------------|------------------|
D||--7---------------|-----------------|-------2----2----|-------2----2----|------------------|
A||-------7----7-----|-------7----7----|-----------------|-----------------|-------3----3-----|
E||--5---------------|--5--------------|--3--------------|--3--------------|--1---------------|


  Q    Q    Q       Q    Q    Q       Q    Q    Q       Q    Q    E  E     Q    Q    Q     
--1---------0----|-----------------|--0--------------|---------------0--|--8---------7----|
-----------------|--3---------1----|-----------------|------------------|-----------------|
-----------------|-----------------|-----------------|--2---------5-----|-----------------|
-----------------|-----------------|-----------------|-------3----3-----|-------7----7----|
-------3----3----|-------2----2----|-------2----2----|--5---------------|--5--------------|
--1--------------|--0--------------|--0--------------|------------------|-----------------|


  Q    Q    Q       Q    Q    Q       Q    Q    E  E     Q    Q    Q       Q    Q    Q     
--3--------------|-----------------|--0---------1--3--|--1---------0----|-----------------|
------------3----|--5--------------|------------------|-----------------|--3---------1----|
-----------------|-----------------|------------------|-----------------|-------2----2----|
-------5----5----|-------5----5----|-------3----3-----|-------3----3----|--2--------------|
--3--------------|--3--------------|--1---------------|--1--------------|-----------------|
-----------------|-----------------|------------------|-----------------|-----------------|


  Q    Q    Q       Q    Q    E  E     Q    Q    Q       Q    Q    Q       Q    Q    Q     
--0--------------|------------------|--8---------7----|--3--------------|--0--------------|
-----------------|---------------5--|--5--------------|--3---------3----|-----------------|
-------1----1----|------------5-----|--5--------------|------------4----|--2---------0----|
--2--------------|--7---------7-----|-----------------|-------2----2----|-------2----2----|
-----------------|-------7----7-----|-------7----7----|-----------------|-----------------|
-----------------|--5---------------|--5--------------|--3--------------|--3--------------|


  Q    Q    E  E     Q    Q    Q       Q    Q    Q       Q    E  E  E  E     Q    Q    E  E   
--0---------1--3--|--1---------0----|-----------------|--0----------------|---------------0--|
------------------|--1---------0----|--3---------1----|--0----------------|------------------|
--2---------2-----|-----------------|--0--------------|-------------------|--2---------5-----|
------------------|-----------------|------------2----|-------------------|-------3----3-----|
-------3----3-----|-------3----3----|-------2----2----|-------2--3--5--2--|--5---------------|
--1---------------|--1--------------|--0--------------|--0----------------|------------------|


  Q    Q    Q       Q    E  E  E  E     Q    Q    Q       Q    Q    E  E     Q    Q    Q     
--8---------7----|--3----------------|--0--------------|--0---------1--3--|--1---------0----|
--5----8----6----|--5----3-----3-----|--1--------------|------------------|-----------------|
--5--------------|----------5--4--2--|--0----0----0----|--2---------3-----|--3---------2----|
-------7----7----|-------5-----5-----|-----------------|-------3----3-----|-------3----3----|
--5--------------|--3----------------|--3--------------|--1---------------|--1--------------|
-----------------|-------------------|-----------------|------------------|-----------------|


  Q    Q    E   E     Q    Q    Q         Q    E  E  E  E     Q    Q    Q       Q    E  E  E  E   
-------------------|--0--------------||--------7--8--7--5--|-----------------|-------7--8--7--5--|
--3---------1------|--0--------------||--------5-----5-----|--5---------5----|-------5-----5-----|
-------2----1h--2--|-------1----1----||*-------5-----5-----|-------5----5----|-------7-----7-----|
--2----------------|--2--------------||*-------------------|--7--------------|--5----------------|
-------------------|-----------------||---0----------------|-----------------|-------------------|
-------------------|-----------------||--------------------|-----------------|-------------------|


   Q    Q    Q       Q     E  E   E  E      Q     Q     Q       Q     E   E   E   E   
--10--------------|-----------8---------|---------------8----|-----------------------|
---0--------------|-------12-----12--8--|--12----------10----|--8-----8--------------|
--------9----9----|--------9------9-----|---------------9----|--9--------10---9--10--|
------------------|---------------------|--------10----------|-----------------------|
--10--------------|--8------------------|---8----------------|-------10------10------|
------------------|---------------------|--------------------|--8--------------------|


  E  T   T  T   T E  E  E  E     Q    E  E  E  E     Q    Q    Q       Q    E  E  E  E   
--0---------------------------|-------0--1--0-----|------------1----|--0----------------|
------------------------------|----------------3--|------------3----|--1-------3--1--3--|
--0---------------------------|-------------3-----|--3---------3----|-------------2-----|
---------------------------0--|-------3-----------|-------3---------|-------2-----------|
-----8h-10p-8h-10-7--8--7-----|--1----------------|--1--------------|--0----------------|
------------------------------|-------------------|-----------------|-------------------|


  Q    Q    Q       Q    Q    Q       Q    Q    Q       Q    Q    E   E     S  S  E  E  E  E  E     
--0--------------|-----------------|-----------------|--0----------------|------------------------||
--1---------1----|--4--------------|------------4----|-------------------|------------------------||
------------2----|-------4----2----|------------4----|--2---------1h--2--|--1--------------------*||
-------2---------|-------4----4----|--1----4----4----|-------------------|--3p-2p-0--------------*||
--0--------------|--2--------------|--2--------------|-------2----2------|-----------3--5--3------||
-----------------|-----------------|--2--------------|--0----------------|--------------------4---||


  Q.     Q.       
----------------||
----------------||
----------------||
----------------||
--0-------------||
----------------||




Duration Legend
---------------
W - whole
H - half
Q - quarter
E - 8th
S - 16th
T - 32nd
X - 64th
. - note dotted
|-n-|  - n-tuplets


Tablature Legend
----------------
L - tied note
x - dead note
g - grace note
(n) - ghost note
> - accentuded note
NH - natural harmonic
AH - artificial harmonic
TH - tapped harmonic
SH - semi harmonic
PH - pitch harmonic
h - hammer on
p - pull off
tr - trill
TP - tremolo picking
T - tapping
S - slap
P - pop
< - fade in
^ - brush up
v - brush down
Login or Register to remove this ad.