Inside the Hub (Death Gambit) Guitar Tab

Submitted: Nov 23, 2018 by Ranulf (Last updated: Nov 29, 2018)

0
Download | Listen
Game: Death Gambit
Style: Alternate picking, Transcription

AutoScroll: Slow | Medium | Fast
Inside the Hub
Death's Gambit
PC/PS4
Composed by Kyle Hnedak and Alex Roe
Tabbed by Ranulf


e||-----------------------------------------------------------------------------------------------------|
B||------------11----------11----------11----------11---------------------------------------------------|
G||*--------------------------------------------------------14-15-------14-15-------14-15-------14-15--*|
D||*--10-12-13----10-12-13----10-12-13----10-12-13----12-15-------12-15-------12-15-------12-15--------*|
A||-----------------------------------------------------------------------------------------------------|
E||-----------------------------------------------------------------------------------------------------|

|---18--17--15--17--13--------------------13---------------18--17--15--17--13-----------------------13------
|-----------------------15--------13--15------15--------15---------------------15--------15-13--15------15--
|*----------------------------------------------------------------------------------------------------------
|*----------------------------------------------------------------------------------------------------------
|-----------------------------------------------------------------------------------------------------------
|-----------------------------------------------------------------------------------------------------------

-----------------------------------------------------------------------------------------------------------------------------------|
------15----15------15----15---13---11-------15----15--13----------------15----15------15----15---13---11-------15----15--13--13---|
--12------------12----------------------14-----------------14--------12------------12----------------------14---------------------*|
----------------------------------------------------------------------------------------------------------------------------------*|
-----------------------------------------------------------------------------------------------------------------------------------|
-----------------------------------------------------------------------------------------------------------------------------------|

  v something like that idk???? v
-----------------------------------
--15-13-11-------------------------
-----------14-12-10----------------
--------------------13-12-10-9-10--
-----------------------------------
-----------------------------------

----------------------------------------------------------------------------------------------------------------------------------
------15----15------15----15---13---11-------15----15--13----------------15----15------15----15---13---11-------15----15--13--13--
--12------------12----------------------14-----------------14--------12------------12----------------------14---------------------
----------------------------------------------------------------------------------------------------------------------------------
----------------------------------------------------------------------------------------------------------------------------------
----------------------------------------------------------------------------------------------------------------------------------

--------------------------------------------------------------------------------------------------------------------
----------------------------------11-------------------------------------------------------------11-----------------
------10--12------10--12------10-------14----12-----10-10------------10--12------10--12------10--------14--14---12--
--12----------12----------12-------------------------------------12----------12----------12-------------------------
--------------------------------------------------------------------------------------------------------------------
--------------------------------------------------------------------------------------------------------------------

|---15------13-11------------------15--13-----11-------13-15-15------15------13-11------------------15--13-----11-11---|
|-----------------15---13---11-13---------11-------11------------------------------15---13---11-13---------11----------|
|*--------------------------------------------------------------------------------------------------------------------*|
|*--------------------------------------------------------------------------------------------------------------------*|
|----------------------------------------------------------------------------------------------------------------------|
|----------------------------------------------------------------------------------------------------------------------|

--15------13-11------------------15--13---------------------------------------------------------------------------------------------------||
----------------15---13---11-13---------11--13-13--------13------11-----------13------11----16--13--------13------11-----13------9----13--||
--------------------------------------------------------------------12-----------------------------------------------12----------8----12--||
------------------------------------------------------------------------13-------------------------------------------------------6----10--||
------------------------------------------------------------------------------------------------------------------------------------------||
------------------------------------------------------------------------------------------------------------------------------------------||
Login or Register to remove this ad.

1 comment on Inside the Hub

Whichever mod sees this

The game is called Death's Gambit.