Mall Music 2 (Dead Rising) Guitar Tab

Submitted: Feb 05, 2015 by allstar99

0
Download | Listen
Game: Dead Rising
Composer(s): Hideki Okugawa, Marika Suzuki
Style: Transcription

AutoScroll: Slow | Medium | Fast
'Mall Music 2' [Dead Rising Official Soundtrack]

Game......................................................Dead Rising [Capcom]
Composer........................................................Hideki Okugawa
Tab..................................................................allstar99
Tuning.......................................................Standard [EADGBe]

*Time stamps are matched to Dead Rising Official Soundtrack*

Tablature Legend
----------------
/ - slide up
\ - slide down
h - hammer on
p - pull off

======================
0:14 / 0:56
======================
*Switch notes in brackets 2nd time [play 6 first, then 7]*
E||-----------------------------------------------------|--------------------------------------------------------|
B||-----------------------------------------------------|--------------------------------------------------------|
G||-------------------------5--5/7\5-----------5--/7\5--|----------5--4--/7------------7--5----------------------|[x2]
D||--------------3--5--5h7----------------5h7-----------|--5--5h7--------------5--5h7--------7--5--------7--[6]--|
A||--7--3--5--7-----------------------------------------|------------------------------------------8--7-----[7]--|
E||-----------------------------------------------------|--------------------------------------------------------|

======================
0:43
======================
E||--2/5---------------5-------------|-------------------------------------------------------------------------------|
B||-------9p7p5----------------------|-------------------------------------------------------------------------------|
G||--------------7--6----------------|----------5--7--5-----------------5--7--5--------------------------------------|
D||-----------------------5-----5/7--|--5--5h7-----------7--5------5h7-----------7--5--------5/7----5----------------|
A||--------------------------7-------|-------------------------------------------------8--7-----------8-7--5-3-------|
E||----------------------------------|--------------------------------------------------------------------------6-5--|
Login or Register to remove this ad.