Ads

Nameless Song (arr. Isac Saleh) (Dark Souls) Guitar Tab

Submitted: Aug 18, 2020 by Lustful_Pig (Last updated: Sep 08, 2020)

5
Average: 5 (4 votes)
Download | Listen
Game: Dark Souls
Composer(s): Motoi Sakuraba
Style: Arrangement, Fingerstyle

Click here for a video example.

AutoScroll: Slow | Medium | Fast
     Nameless Song                                   

Dark Souls
Composed by Motoi Sakuraba
Arranged by Isac Saleh

Standard Tuning: EADGBE



     Q    Q    H         Q      Q        W.                   W.                
E||-----------------------------------|--------------------|--L----------------|
B||--8----7----8--------10S----12S----|--7~----------------|--L----------------|
G||-----------------------------------|--------------------|-------------------|
D||-----------------------------------|--------------------|-------------------|
A||-----------------------------------|--------------------|-------------------|
E||-----------------------------------|--------------------|-------------------|


  Q    Q    H         Q      Q        H.            H.             
----------------------------------|--10~------------9~------------|
--8----7----8--------10S----12----|-------------------------------|
----------------------------------|-------------------------------|
----------------------------------|-------------------------------|
----------------------------------|-------------------------------|
----------------------------------|-------------------------------|


     NH                     NH                  NH     NH    
     W.                     W                   Q      Q     
--<>12----------------|--<>12-------------------------------|
----10----------------|--<>12----------------<>12-----------|
----------------------|-------------------------------------|
----------------------|------------------------------<>7----|
----------------------|-------------------------------------|
----------------------|-------------------------------------|


    Q    Q    Q    H.              Q    Q    Q      Q      H         
--<>0---------2----3------------|--2---------0----------------------|
---------0----------------------|-------0---------<>0---------------|
--------------------------------|------------------------<>0--------|
----2---------------------------|--2--------------------------------|
--------------------------------|-----------------------------------|
--------------------------------|-----------------------------------|


  Q    Q    Q    H.              Q    Q    Q      Q      H         
--5---------2----3------------|--3---------0----------------------|
-------0----------------------|-------0---------<>0---------------|
------------------------------|-----------------------------------|
--2---------------------------|--2---------------------<>4--------|
------------------------------|-----------------------------------|
--0---------------------------|-----------------------------------|


  Q    Q    H        Q     Q        Q    Q    Q      H.            
--3----2----3--------5S----7S----|--2---------0-------------------|
-------0-------------------------|-------0---------<>0------------|
---------------------------------|--------------------------------|
--2------------------------------|--2-----------------------------|
---------------------------------|--------------------------------|
---------------------------------|--------------------------------|


  Q    Q    H        Q     Q          Q    Q    Q    H.            
--3----2----3--------5S----7S~----|--10--------------9------------|
-------0--------------------------|-------------7----8------------|
----------------------------------|-------------------------------|
--2-------------------------------|--------9----------------------|
----------------------------------|---7---------------------------|
----------------------------------|-------------------------------|


    Q    Q    W                   Q    Q    Q    H.            
--------------0----------------|------------2----3------------|
--<>0--------------------------|-------0----------------------|
---------4---------------------|------------------------------|
----2--------------------------|--2---------------------------|
-------------------------------|------------------------------|
-------------------------------|------------------------------|


  Q    Q    Q     H.               Q    Q    Q    H.             
------------0-----7-------------|------------2----3-------------|
-------0------------------------|-------0-----------------------|
--------------------------------|------------2----4~------------|
--2---------4S----5~------------|--2----------------------------|
-------2------------------------|-------2-----------------------|
--0-----------------------------|--0----------------------------|


  Q    Q    Q      Q    Q     Q        Q    Q    Q      H.            
--3----2----3----<>0----5S----7S----|--2---------0----<>2------------|
-------0----------------------------|-------0------------------------|
------------------------------------|--------------------------------|
--2---------------------------------|--2-----------------------------|
------------------------------------|--------------------------------|
------------------------------------|--------------------------------|


  Q    Q    Q      Q    Q     Q          Q    Q    Q    H.            
--3----2----3----<>0----5S----7S~----|--10--------------9------------|
-------0-----------------------------|-------------7----8------------|
-------------------------------------|-------------------------------|
--2----------------------------------|--------9----------------------|
-------------------------------------|---7---------------------------|
-------------------------------------|-------------------------------|


  Q    Q    Q      H.              Q    Q    Q    H.            
--5---------0-------------------|------------2----3------------|
-------0---------<>0------------|-------0----------------------|
--------------------------------|------------------------------|
--2-----------------------------|--2---------------------------|
--------------------------------|------------------------------|
-------------------0------------|------------------------------|


  Q    Q    Q    H.               Q    Q    Q      Q      H         
------------0----7~------------|------------0-----------<>0--------|
-------0-----------------------|-------0---------<>0---------------|
-------------------------------|-----------------------------------|
--2---------4------------------|--2--------------------------------|
-------2----5------------------|--3----------------2---------------|
--0----------------------------|-----------------------------------|


  ^                                ^                              
  Q    Q    Q    Q    Q    Q       Q    Q    Q    Q    Q    Q     
--3-------------------2----3----|--5-------------------3----5----|
--------------------------------|------------0----3--------------|
------------4----5--------------|--------------------------------|
-------2------------------------|-------4------------------------|
--0-----------------------------|--2-----------------------------|
--------------------------------|--------------------------------|


    ^                                                           
    Q    Q    Q    H.              Q    Q    Q    H.            
--------------------------------|------------------------------|
--<>0--------------1------------|-----------------1------------|
--------------4-----------------|------------4-----------------|
---------2----------------------|-------2----------------------|
----0---------------------------|--0---------------------------|
--------------------------------|------------------------------|


  Q    Q    H        Q    Q       Q    Q    Q    Q    H         
--8------------------7----5----|--3--------------5----0--------|
--5------------------5---------|--5---------3------------------|
--5---------5------------------|-------2-----------------------|
-------5-----------------------|--0----------------------------|
-------------------------------|-------------------------------|
-------------------------------|-------------------------------|


  Q    Q    H          H          W.                
--7-----------------------------<>0----------------|
--8----7----8--------<>0---------------------------|
------------9--------------------------------------|
-------9-------------------------------------------|
--7------------------------------------------------|
---------------------------------------------------|


  ^                                 ^        ^                 
  Q    Q     H        Q     Q       H        W                 
--8----7-------------------------|--7-------------------------|
------------10--------8----10----|-----------8----------------|
--9------------------------------|--9-------------------------|
--7------------------------------|--9--------9----------------|
---------------------------------|--7-------------------------|
---------------------------------|----------------------------|


  ^                   ^            ^                           
  Q    Q    Q    Q    Q    Q       Q    Q    W                 
--8----7----5--------------5----|--7--------------------------|
-----------------0----8---------|------------8----------------|
----------------------5---------|------------9----------------|
------------7-------------------|-------9---------------------|
-------7------------------------|--7--------------------------|
--5-----------------------------|-----------------------------|


   Q      Q     Q     Q     Q     Q         Q    Q      Q    Q    H         
--14S----12----10-----------9----10----|--<>0------------------------------|
---------------------------------------|--------------<>1----0----1--------|
---------------------------11----------|----------------2------------------|
---9-----------11----12----------------|---------2-------------------------|
----------9----------------------------|----0------------------------------|
---------------------------------------|-----------------------------------|


   Q      Q     Q     Q     Q     Q         Q    Q      Q    Q    H         
--14S----12----10-----------9----10----|--<>0------------------------------|
---------------------------------------|--------------<>1---------1--------|
---------------------------11----------|---------------------4-------------|
---9-----------11----12----------------|---------2----------------2--------|
----------9----------------------------|----0-----------3------------------|
---------------------------------------|-----------------------------------|


  Q    Q    H        Q     Q       Q    Q    H        H         
--3----2----3--------5S----7----|--2---------0-----------------|
-------0------------------------|--3----0----2-----------------|
--------------------------------|------------------------------|
--2-----------------------------|--2------------------7--------|
--------------------------------|------------------------------|
--------------------------------|------------------------------|


  Q    Q    H         Q    Q        Q    Q    Q    H.            
--7----5----7--------------7----|--10--------------9------------|
--8----7----8--------10---------|-------------7----8------------|
--------------------------------|---7--------------9------------|
--------------------------------|--------9----------------------|
--7-----------------------------|---7---------------------------|
--------------------------------|---0---------------------------|


   Q    Q    Q    H.              Q    Q    H        H         
------------------7------------|--2---------3-----------------|
--10---------------------------|-------0----------------------|
---9---------9----9------------|------------0--------2--------|
--------9----------------------|--2---------------------------|
---7---------------------------|------------------------------|
---0--------------0------------|--0---------------------------|


                                                     NH      NH      NH    
  Q    Q    Q      H.               Q    Q    Q      Q       Q       Q     
--5---------0-------------------|--10---------------------<>12------------|
-------0---------<>0------------|--------0---------<>7------------<>12----|
--------------------------------|---7---------6---------------------------|
--2-----------------------------|-----------------------------------------|
--------------------------------|---7---------------------<>12------------|
--0-----------------------------|-----------------------------------------|


   Q     Q     Q    Q     H            Q    Q     Q     Q      Q     Q     
--------------------9--------------|-------------14-----------------12----|
--10-----9---------------12--------|--10----9----------14S----12----------|
--------------11-------------------|--11----------------------------------|
--------11-------------------------|--------------------------------------|
---9-------------------------------|--------------------------------------|
-----------------------------------|--------------------------------------|


   ^                               NH         NH      NH            
   Q    Q    W                     H          Q       H.            
--10----9----7----------------|-------------<>5------12------------|
---9--------------------------|-------------<>5----<>12------------|
-------------9----------------|------------------------------------|
--------9---------------------|--<>7-------------------------------|
---7--------------------------|--<>7-------------------------------|
------------------------------|------------------------------------|


  Q    Q    Q    Q     H            Q    Q    Q    Q     Q     Q     
--5----4---------9S----7~--------|--5----4---------9-----7----10----|
------------3--------------------|------------3---------10-----9----|
-------2-------------------------|-------2--------------------------|
--0------------------------------|--0-------------------------------|
---------------------------------|----------------------------------|
---------------------------------|----------------------------------|


  Q     Q     Q     Q    Q     Q       Q     Q     Q    Q    H         
--9----------12----10----9----------|--9------------------------------|
-------12---------------------12----|------------------------9--------|
------------------------------------|-------------------9-------------|
-------------11---------------------|-------------11------------------|
-------11---------------------------|-------11------------------------|
--9---------------------------------|--9------------------------------|


  Q    Q     Q    H        Q       H        H        H         
--7------------------------9----|-----------------------------|
--------------------------------|--7--------5--------7--------|
------------------7-------------|--7--------6--------7--------|
------------11------------------|--0-----------------0--------|
-------9------------------------|-----------4-----------------|
--7-----------------------------|-----------------------------|


   Q    Q    Q    Q    H           Q    Q    Q    Q    Q    Q     
--------------------------------|--2-------------------3----5----|
--10---------8----7----8--------|-----------------3--------------|
-------------9---------9--------|------------4-------------------|
--------9-----------------------|-------4------------------------|
---7----------------------------|--2-----------------------------|
--------------------------------|--------------------------------|


     Q    Q    Q    Q    H              Q    Q    Q    Q    H         
-------------------------0--------|---------------5---------0--------|
--<>15--------------0-------------|--<>14-------------------2--------|
---------------2---------2--------|---------------2----4-------------|
----------0-----------------------|----------2-----------------------|
----------------------------------|-----0----------------------------|
-----3----------------------------|----------------------------------|


  Q    Q    Q    Q    Q    Q       Q    Q    Q    Q    Q    Q     
--2-------------------5---------|----------------------5---------|
--3---------2----3---------3----|------------2----3---------3----|
--------------------------------|--------------------------------|
-------4------------------------|-------4------------------------|
--2-----------------------------|--2-----------------------------|
--------------------------------|--------------------------------|


         ^      ^                     ^      ^                        
  Q      Q      W                     Q      Q    Q    Q    H         
---------------------------------|--------------------------2--------|
-------<>2----<>3----------------|--<>2----<>0----2----3-------------|
----------------4----------------|-----------------------------------|
---------4-----------------------|-----------4-----------------------|
--2------------------------------|----2------------------------------|
---------------------------------|-----------------------------------|


    ^      ^      ^                        ^                                
    Q      Q      H          H             Q      Q      Q    H.            
---------------------------<>0--------|------------------------------------|
---------<>2----<>3-------------------|--<>3----<>2----<>0----3------------|
--<>4-------------4-------------------|------------------6-----------------|
-----------4--------------------------|-----------4------------------------|
----2---------------------------------|----2-------------------------------|
--------------------------------------|------------------------------------|


  Q    Q    Q    Q    H           H        H        Q    Q     
--7---------8---------0--------|------------------------------|
-----------------0-------------|--3-----------------1----0----|
-------------------------------|------------------------------|
------------7------------------|-----------2------------------|
-------7--------------7--------|--0---------------------------|
--5----------------------------|------------------------------|


  Q    Q    Q    Q    H           Q    Q    Q    Q    H         
--7---------8---------0--------|-------------------------------|
----------------------0--------|--3-------------------0--------|
------------0------------------|--0---------0----2-------------|
-------0---------7-------------|-------0-----------------------|
-------------------------------|-------------------------------|
--3----------------------------|--3----------------------------|


  Q    Q    Q    Q    H           Q    Q    Q    Q    H         
--2--------------3-------------|--0--------------3-------------|
-------------------------------|-------0-----------------------|
-----------------0-------------|--2--------------0-------------|
--4---------2---------4--------|--2---------2---------4--------|
-------2-----------------------|-------------------------------|
--0----------------------------|--0----------------------------|


  Q    Q    Q    Q    H           Q    Q    Q    Q    H         
--3----2----0------------------|--5--------------3-------------|
--0----------------------------|-----------------0-------------|
----------------------0--------|--2----5-----------------------|
--2---------2----4-------------|------------2---------4--------|
-------2-----------------------|-------------------------------|
--0----------------------------|--0----------------------------|


   Q    H        Q     H            Q    H        Q     Q     Q     
-----------------9--------------|-----------------9----------12----|
--10----9-------------12--------|--10----9-------------12----------|
--------------------------------|---9------------------------------|
--11----------------------------|--11------------------------------|
---9----------------------------|---9------------------------------|
--------------------------------|----------------------------------|


   Q    Q     W                    W.                
--10----9----------------------|--------------------|
---9---------12----------------|---9----------------|
-------------------------------|---9----------------|
-------------------------------|---9----------------|
--11---------------------------|--11----------------|
-------------------------------|--------------------|


   Q    H        Q     H            Q    H        Q     Q     Q     
-----------------9--------------|-----------------9----------10----|
--10----9-------------12--------|--10----9-------------12----------|
--------------------------------|--11------------------------------|
--11----------------------------|--11------------------------------|
---0----------------------------|---0------------------------------|
--------------------------------|----------------------------------|


                                      ^                 
  Q    Q     Q      Q    Q    Q       W.                
--9----7----12S----10----9----7----|--9----------------|
-----------------------------------|--7----------------|
--7--------------------------------|--7----------------|
--9--------------------------------|--9----------------|
-----------------------------------|--9----------------|
--7--------------------------------|--7----------------|


                                        NH         NH                
  Q     Q     Q     Q     H             H          W                 
-----------------------------------|--------------------------------|
-----------------------------------|--<>7--------<>7----------------|
-------------11----------11--------|---11---------------------------|
-------11----------11--------------|--------------------------------|
--9--------------------------------|--------------------------------|
-----------------------------------|--------------------------------|


                                         NH     NH                
  Q    Q    Q    Q    H           Q      Q      W                 
-------------------------------|---------------------------------|
-------------------------------|-------<>7----<>7----------------|
------------9---------9--------|---------------------------------|
-------9---------9-------------|--9------------------------------|
--7----------------------------|---------------------------------|
-------------------------------|---------------------------------|


  ^                             ^                             
  Q    Q    W                   Q    Q    H        Q    Q     
------------4----------------|-------------------------------|
--2---------3----------------|--2---------0------------------|
-------2----1----------------|-------2----1--------2----1----|
--0--------------------------|--0----------------------------|
-----------------------------|-------------------------------|
-----------------------------|-------------------------------|


  Q    Q    Q    Q    Q    Q       Q    Q    Q    Q    Q    Q     
---------------------------4----|---------------------------4----|
-----------------5----7---------|-----------------5----7---------|
--6---------6-------------------|------------6-------------------|
-------6------------------------|-------6------------------------|
--4-----------------------------|--4-----------------------------|
--------------------------------|--------------------------------|


  Q    Q    Q    Q    H           Q    Q    Q    Q    H         
-------------------------------|-------------------------------|
--0-------------------0--------|-------------------------------|
-----------------2-------------|--0----------------------------|
------------2------------------|------------2---------2--------|
-------2-----------------------|-------2---------2-------------|
--0-------------------0--------|--0----------------------------|


  Q    Q    Q    Q    H           Q    Q    Q    Q    H         
-------------------------------|-------------------------------|
--0-------------------0--------|-------------------------------|
------------2---------0--------|--0----------------------------|
------------4------------------|------------2---------2--------|
-------2---------2-------------|-------2---------2-------------|
--0-------------------0--------|--0----------------------------|


  Q    Q    H         Q      Q        W.                  
-----------------------------------|--------------------||
--8----7----8--------10S----12S----|--7~----------------||
-----------------------------------|--------------------||
-----------------------------------|--------------------||
-----------------------------------|--------------------||
-----------------------------------|--------------------||




Duration Legend
---------------
W - whole
H - half
Q - quarter
E - 8th
S - 16th
T - 32nd
X - 64th
. - note dotted
|-n-|  - n-tuplets


Tablature Legend
----------------
L - tied note
x - dead note
g - grace note
(n) - ghost note
> - accentuded note
NH - natural harmonic
AH - artificial harmonic
TH - tapped harmonic
SH - semi harmonic
PH - pitch harmonic
h - hammer on
p - pull off
b - bend
br - bendRelease
pb - preBend
pbr - preBendRelease
brb - bendReleaseBend
\n/ - tremolo bar dip
\n - tremolo bar dive
-/n - tremolo bar Release up
/n\ - tremolo bar inverted dip
/n - tremolo bar return
-\n - tremolo bar Release down
S - shift slide
s - legato slide
/ -  slide into from below or out of upwards
\ -  slide into from above or out of downwards
~ - vibrato
W - wide vibrato
tr - trill
TP - tremolo picking
T - tapping
S - slap
P - pop
< - fade in
^ - brush up
v - brush down


  
Login or Register to remove this ad.