Ads

Main Menu Theme (arr. Isac Saleh) (Dark Souls) Guitar Tab

Submitted: Sep 19, 2020 by Lustful_Pig (Last updated: Sep 24, 2020)

0
Download | Listen
Game: Dark Souls
Composer(s): Motoi Sakuraba
Style: Arrangement, Fingerstyle

Click here for a video example.

AutoScroll: Slow | Medium | Fast
Main Menu Theme                                 

Dark Souls III
Arranged by Isac Saleh
Composed by Yuka Kitamura

Drop D tuning: DADGBE (Capo 2)



     71  bpm ost                                                       
     H           H           Q    Q    H           H        Q    Q     
E||-----------------------|--5---------1--------|--3--------5----0----|
B||--3-----------3--------|--3---------3--------|--3--------3---------|
G||--2-----------2--------|--2---------2--------|--2--------2---------|
D||--0--------------------|---------------------|---------------------|
A||-----------------------|---------------------|---------------------|
D||--0--------------------|--0----0-------------|--0------------------|


                        |--3--|  |--3--|  |--3--|  |--3--|   
  Q    Q    H           E  E  E  E  E  E  E  E  E  E  E  E   
--3---------1--------|--------------------------------------|
--3---------3--------|--3-----------------3-----------------|
--2---------2--------|--2-----------------2-----------------|
---------------------|--0--0--0--0--0--0--0--0--0--0--0--0--|
---------------------|--------------------------------------|
--0----0-------------|--0-----------------0-----------------|


  |--3--|  |--3--|  |--3--|  |--3--|     |--3--|  |--3--|  |--3--|  |--3--|   
  E  E  E  E  E  E  E  E  E  E  E  E     E  E  E  E  E  E  E  E  E  E  E  E   
--5-----------------1-----------------|--6-----------------8-----------------|
--------------------------------------|--------------------------------------|
--2--------0--------3--------2--------|--2--------------------------0--------|
--0--0--0--0--0--0--0--0--0--0--0--0--|--0--0--0--0--0--0--0--0--0--0--0--0--|
--------------------------------------|-----------7--------8-----------------|
--0--------0--------0--------0--------|--0-----------------------------------|


                                PM PM PM PM PM PM PM PM  
  |--3--|  |--3--|                                       
  E  E  E  E  E  E  H           E  E  E  E  E  E  E  E   
--3-----1-----0-----0--------|--------------------------|
-----------------------------|--3-----------3-----------|
--2-----------------2--------|--2-----------3-----------|
-----0--0-----0--0-----------|--------0-----------0-----|
-----------------------------|--------------------------|
--0--------0--------0--------|--0--0--0--0--0--0--0--0--|


  PM PM PM PM PM PM PM PM                                             
                             |-3| |3|  |-3| |3|  |-3| |3|  |-3| |3|   
  E  E  E  E  E  E  E  E     E  S S E  E  S S E  E  S S E  E  S S E   
--------0-----5-----3-----|------------------------------------------|
--3-----------6-----------|--3--3---3--3--3---3--1--1---1--1--1---1--|
--0-----0-----------0-----|--2--2---2--2--2---2--2--2---2--2--2---2--|
--0-----2-----3-----------|------------------------------------------|
--------------------------|-------0---------0---------0---------0----|
--0--0--0--0--0--0--0--0--|--0---------0---------0---------0---------|


  |-3| |3|  |-3| |3|  |-3| |3|  |-3| |3|   
  E  S S E  E  S S E  E  S S E  E  S S E   
------------------------------------------|
--0--0---0--0--0---0--3--3---3--2--2---2--|
--0--0---0--0--0---0--4--4---4--3--3---3--|
------------------------------------------|
-------0---------0---------0---------0----|
--0---------0---------0---------0---------|


  |--3--|  |--3--|  |-3| |3|  |-3| |3|   
  E  E  E  E  E  E  E  S S E  E  S S E   
----------------------------------------|
--3-----------------3----3----3----3----|
--2-----------------2----3----0----2----|
-----------------------0---0-----0---0--|
-----0--0-----0--0----------------------|
--0--------0--------5---------5---------|


  |--3--|  |-3| |3|  |--3--|  |--3--|   
  E  E  E  E  S S E  E  E  E  E  E  E   
--0---------------------------0--------|
--0-------------6----6--------0--------|
----------------4----4-----------------|
------------------------0--0-----0--0--|
-----7--7-----7---7--------------------|
--6--------6---------5--------5--------|


  |-3| |3|  |--3--|  |--3--|  |-3| |3|     |-3| |3|  |-3| |3|  |--3--|        
  E  S S E  E  E  E  E  E  E  E  S S E     E  S S E  E  S S E  E  E  E  Q     
--0----1----------------------1----3----|--5---------3---------1--------0----|
------------3---------------------------|--3----6----2----2----3--------2----|
--2---------2--------3--------0---------|--0---------0---------2--------2----|
-----0---0-----0--0-----0--0-----0---0--|-----0---0--------------------------|
------------0--------5------------------|---------------4---4--0--0--0--0----|
--0---------------------------3---------|--3---------4-----------------------|


  |--3--|  |--3--|  |--3--|  |--3--|     |--3--|  |--3--|  |--3--|  |--3--|   
  E  E  E  E  E  E  E  E  E  E  E  E     E  E  E  E  E  E  E  E  E  E  E  E   
-----------1--------3--------0--------|-----------1--------3--------6--------|
--3--------3--------3--------3--------|--3--------3--------3--------3--------|
--2-----------------------------------|--2-----------------------------------|
-----0--0-----0--0-----0--0-----0-----|-----0--0-----0--0-----0--0-----0-----|
--------------------------------------|--------------------------------------|
--0--------0--------0--------0-----0--|--0--------0--------0--------0-----0--|


  |-3| |3|  |-3| |3|  |-3| |3|  |-3| |3|   
  E  S S E  E  S S E  E  S S E  E  S S E   
-------0----1----3---------0----0----1----|
--3---------------------------------------|
-----------------0------------------------|
--0----2----3--------------2----2----3----|
-----0---0-----0---0--0--0---0-----0---0--|
--0---------0-------------------0---------|


  |-3| |3|  |-3| |3|  |-3| |3|  |-3| |3|   
  E  S S E  E  S S E  E  S S E  E  S S E   
-------3----5----8---------6----5----3----|
------------------------------------------|
-------0----2----5---------3----2----0----|
--0---------------------------------------|
-----0---0-----0---0--0--0---0-----0---0--|
--0---------0-------------------0---------|


  |-3| |3|  |-3| |3|  |-3| |3|  |-3| |3|   
  E  S S E  E  S S E  E  S S E  E  S S E   
-------5----0----1----3----5----6----3----|
------------------------------------------|
-------2--------------0----2----3----0----|
--0---------2----3------------------------|
-----0---0-----0---0-----0---0-----0---0--|
--0---------0-------------------0---------|


  |-3| |3|  |-3| |3|  |-3| |3|  |-3| |3|   
  E  S S E  E  S S E  E  S S E  E  S S E   
--5----1----3--------------0--------------|
-----------------2----3--------------2----|
--2---------0-------------------2---------|
-------3--------------0----2--------------|
-----0---0-----0---0-----0---0-----0---0--|
--0---------0-------------------0---------|


  |-3| |3|  |-3| |3|  |-3| |3|  |-3| |3|   
  E  S S E  E  S S E  E  S S E  E  S S E   
-------0----1----5---------3----5----0----|
--3---------------------------------------|
-----------------2---------0----2---------|
--0----2----3---------0--------------2----|
-----0---0-----0---0-----0---0-----0---0--|
--0---------0---------0---------0---------|


  |-3| |3|  |-3| |3|  |-3| |3|  |-3| |3|   
  E  S S E  E  S S E  E  S S E  E  S S E   
--1----3----5----8---------6----5----3----|
------------------------------------------|
-------0----2----5---------3----2----0----|
--3-------------------0-------------------|
-----0---0-----0---0-----0---0-----0---0--|
--0---------0---------0---------0---------|


  |-3| |3|  |-3| |3|  |-3| |3|  |-3| |3|     |-3| |3|        |-3| |-3| |-3|     
  E  S S E  E  S S E  E  S S E  E  S S E     E  S S E  E  E  E  S E  S E  S E   
--5----1----3----5----1----0----1----3----|-------1----0-----------------------|
------------------------------------------|---------------2--3----2----3----2--|
--2---------0----2----3----0----2----0----|------------------2----2----2----2--|
-------3--------------3----2----3----2----|-------3----2-----------------------|
-----0---0-----0---0-----0---0-----0---0--|-----0---0-----4-----0----0----0----|
--0---------0-------------------0---------|--0---------------------------------|


  |-3-| |-3-| |-3-| |-3-| |-3-| |-3-| |-3-| |-3-|  
  S S S S S S S S S S S S S S S S S S S S S S S S  
--------3-----------6-----------5-----------3-----|
------3---3-------3---3-------3---3-------3---3---|
----3-------3---3-------3---2-------2---3-------3-|
--------------------------------------------------|
--------------1-----------0-----------------------|
--5-----------------------------------5-----5-----|


  |-3-| |-3-| |-3-| |-3-| |-3-| |-3-| |-3-| |-3-|  
  S S S S S S S S S S S S S S S S S S S S S S S S  
--------5-----------5-----------1-----------1-----|
------3---3-------3---3-------3---3-------3---3---|
----2-------2---2-------2---2-------2---2-------2-|
--------------------------------------------------|
--0-----------0-----0-----------------------------|
--------------------------3-----------3-----3-----|


  |-3-| |-3-| |-3-| |-3-| |-3-| |-3-| |-3-|     
  S S S S S S S S S S S S S S S S S S S S S E   
--------0-----------0--------------------------|
------0---0-------0---0---------8---------8----|
----2-------2---2-------2-----6---6-----6---6--|
----------------------------5-------5----------|
--------------------------------------------4--|
--2-----------2-----------5-----------5--------|


  |-3| |3|  |-3| |3|  |-3| |3|  |-3| |3|   
  E  S S E  E  S S E  E  S S E  E  S S E   
-------5----3----5----1----5---------5----|
--3----3----3----3----3----3---------3----|
--2----2----0----2----2----2---------2----|
-----0---0-----0---0-----0---0-----0---0--|
--------------------------------0---------|
--0---------0---------0-------------------|


  |-3| |3|  |-3| |3|  |-3| |3|                                      
  E  S S E  E  S S E  E  S S E  E  E     E  E  E  E   E  E   Q      
------------5-------------------3--5--|--6-----9-----10-----12S----|
-------8---------5---------7----------|----------------------------|
--------------------------------3--2--|--0-------------------------|
-----4---4--4--4---4--4--4---4--4--0--|--------7------8-----10S----|
-----5---5--5--5---5--5--5---5--5-----|--------0-------------------|
--4-----------------------------------|--5------------8-----10S----|


  |-3| |3|  |-3| |3|  |-3| |3|  |-3| |3|   
  E  S S E  E  S S E  E  S S E  E  S S E   
------------------------------------------|
--3--3---3--3--3---3--3--3---3--3--3---3--|
--2--2---2--2--2---2--3--3---3--3--3---3--|
------------------------------------------|
-------3----1----0---------0--------------|
--0-------------------5---------5----3----|


  |-3| |3|  |-3| |3|  |--3--|  |--3--|     |--3--|  |--3--|  |--3--|  |--3--|   
  E  S S E  E  S S E  E  E  E  E  E  E     E  E  E  E  E  E  E  E  E  E  E  E   
----------------------------------------|--------------------------------------|
--2--2---2--2--2---2--2--2--2--2--2--2--|--3--3--3--3--3--3--0--0--0--0--0--0--|
--0--0---0--0--0---0--0--0--0--0--0--0--|--1--1--1--1--1--1--1--1--1--1--1--1--|
-------2----3---------0--------3--3--3--|--------------------------------------|
--0--------------4----------------------|--2--2--2--2--2--2--2--2--2--2--2--2--|
----------------------------------------|--------------------------------------|


  |--3--|  |--3--|  |--3--|  |--3--|   
  E  E  E  E  E  E  E  E  E  E  E  E   
--------------------0--0--0--0--0--0--|
--------------------0--0--0--0--0--0--|
--1--1--1--1--1--1--------------------|
--0--0--0--0--0--0--2--2--2--2--2--2--|
--2--2--2--2--2--2--2--2--2--2--2--2--|
--------------------------------------|


  |--3--|  |--3--|                                                  
  E  E  E  E  E  E  T  T  T  T  T  T  T  T  T  T  T  T  T  T  T  T  
-------------------------------------------------------------------|
--3--3--3--3--3--3-------------------------------------------------|
--2--2--2--2--2--2--2h-6p-2h-6p-2h-6p-2h-6p-2h-6p-2h-6p-2h-6p-2h-6-|
-------------------------------------------------------------------|
--0--0--0--0--0--0--0----------------------------------------------|
-------------------------------------------------------------------|


  Q.     S. T E  E  E  E     Q    E  E  Q     E.   T T    Q    Q    Q    E  E   
--5------L----5--6--3--5--|--7----7--8--8~----7~---L---|--------------------3--|
--3------L----3--------3--|--5----5--6--6~----5~-------|--5----3----3----6-----|
--2------L----0-----------|-------------0----------L---|--2----2----3----------|
--------------------------|--6---------------------L---|--2---------5----5-----|
--------------------------|----------------------------|-----------------------|
--0-----------------------|----------------------------|------------5----------|


                           |--3--|  |--3--|  |-3| |3|  |-3| |3|   
  E  E  E  E  Q    Q       E  E  E  E  E  E  E  S S E  E  S S E   
--5---------------------|----------------------------------------|
--6--6--8-----6----5----|--3-----------------3----3----3----3----|
--7-----6--6--7----6----|--2-----------------2----3----0----2----|
--------5-----7----7----|-----------------------0---0-----0---0--|
--------------0---------|-----0--0-----0--0----------------------|
--5-----6---------------|--0--------0--------5---------5---------|


  |--3--|  |-3| |3|  |--3--|  |--3--|   
  E  E  E  E  S S E  E  E  E  E  E  E   
--0---------------------------0--------|
--0-------------6----6--------0--------|
----------------4----4-----------------|
------------------------0--0-----0--0--|
-----7--7-----7---7--------------------|
--6--------6---------5--------5--------|


  |-3| |3|  |--3--|  |--3--|  |-3| |3|     |-3| |3|  |-3| |3|  |--3--|        
  E  S S E  E  E  E  E  E  E  E  S S E     E  S S E  E  S S E  E  E  E  Q     
--0----1----------------------1----3----|--5---------3---------1--------0----|
------------3---------------------------|--3----6----2----2----3--------2----|
--2---------2--------3--------0---------|--0---------0---------2--------2----|
-----0---0-----0--0-----0--0-----0---0--|-----0---0--------------------------|
------------0--------5------------------|---------------4---4--0--0--0--0----|
--0---------------------------3---------|--3---------4-----------------------|


  W                  
-------------------||
--3----------------||
--2----------------||
--0----------------||
-------------------||
--0----------------||




Duration Legend
---------------
W - whole
H - half
Q - quarter
E - 8th
S - 16th
T - 32nd
X - 64th
. - note dotted
|-n-|  - n-tuplets


Tablature Legend
----------------
L - tied note
x - dead note
g - grace note
(n) - ghost note
> - accentuded note
NH - natural harmonic
AH - artificial harmonic
TH - tapped harmonic
SH - semi harmonic
PH - pitch harmonic
h - hammer on
p - pull off
b - bend
br - bendRelease
pb - preBend
pbr - preBendRelease
brb - bendReleaseBend
\n/ - tremolo bar dip
\n - tremolo bar dive
-/n - tremolo bar Release up
/n\ - tremolo bar inverted dip
/n - tremolo bar return
-\n - tremolo bar Release down
S - shift slide
s - legato slide
/ -  slide into from below or out of upwards
\ -  slide into from above or out of downwards
~ - vibrato
W - wide vibrato
tr - trill
TP - tremolo picking
T - tapping
S - slap
P - pop
< - fade in
^ - brush up
v - brush down
Login or Register to remove this ad.

1 comment on Main Menu Theme (arr. Isac Saleh)

Isac Saleh/Alfa_ice has more

Isac Saleh/Alfa_ice has more tabs on his site. IDK how often he updates but he still posts new recordings on youtube.