Ads

Matataki Village (Dark Cloud) Guitar Tab

Submitted: Jan 01, 2017 by chimatte (Last updated: Feb 01, 2017)

5
Average: 5 (1 vote)
Download | Listen
Game: Dark Cloud
Composer(s): Tomohito Nishiura
Style: Arrangement, Fingerstyle

Click here for a video example.

AutoScroll: Slow | Medium | Fast
MATATAKI VILLAGE
Dark Cloud
Tomohito Nishiura
Capo 2



     E  E  E  E  E  E  E  E     E  E  E  E  E  E  E  E       E  E  E  S  S E  E  E  E   
E||--------------------------|--------------------------||---3--------2h-3-2-----------|
B||--------------------------|-----------------------0--||---------0----------3--0-----|
G||--------2--0--------2--0--|--------2--0--------2-----||*-----------2----0--------2--|
D||-----0-----------0--------|-----0-----------0--------||*-----0-------------0-----0--|
A||--------------------------|--------------------------||-----------------------------|
E||--3-----------3-----------|--3-----------3-----------||---3-------------------3-----|


  E  E  E  S  S E  E  E  E     E  E  E  S  S E  E  E  E     E  E  E  E  E  E  E  E   
-----------2h-3-2-----------|-----------2h-3-2-----------|-----------------------2--|
--0-----0----------3--0-----|--0----------------3--0-----|--------------------3-----|
-----------2-------------2--|--------0----------------2--|--2-----------------------|
-----0----------0-----4-----|-----------4----------4-----|--------5--4--0-----0--4--|
-------------------2--------|-----2-------------2--------|-----2-----------2--------|
--3-------------------------|--0-------------0-----------|--0-----------------------|


  E  E  E  S  S E  E  E  E     E  E  E  S  S E  E  E  E     E  E  E  S  S E  E  E  E   
--3--------2h-3-2-----------|-----------2h-3-2-----------|-----------2h-3-2-----------|
--------0----------3--0-----|--0-----0----------3--0-----|--0----------------3--0-----|
-----------2----0--------2--|-----------2-------------2--|--------0----------------2--|
-----0-------------0-----0--|-----0----------0-----4-----|-----------4----------4-----|
----------------------------|-------------------2--------|-----2-------------2--------|
--3-------------------3-----|--3-------------------------|--0-------------0-----------|


  E  E  E  E  E  E  E  E     E  E  E  S  S E  E  E  E     E  E  E  S  S E  E  E  E   
--0-----------------------|----------------------------|----------------------------|
-----------------------0--|--1-----1--0h-1-0-----------|--------0--0h-1-0-----------|
--------2--0-----0--2-----|-------------------2--2--1--|--2----------------2--2--1--|
--------------4-----------|-----2-------------2--------|-----2-------------2--------|
-----2--------------0--2--|--0--------2----------------|-----------3----------------|
--0-----------------------|----------------4-----------|--3-------------2-----------|

                               ___________________________  ___________________
                              | 1.                         | 2. 
  E  E  E  S  S E  E  S S  E     E  E  E  E  E  E  E  E       W                  
------------------------------|-----------------------2---||--3----------------||
--------0---------------------|--------------------3------||--0----------------||
--2--------2h-3-2--0----------|-----------2--0-----------*||--0----------------||
-----2----------1-------0h-1--|--0-----0--------0--------*||-------------------||
-----------3------------------|-----0--------------2--0---||-------------------||
--1-------------------3-------|---------------------------||--3----------------||




Duration Legend
---------------
W - whole
H - half
Q - quarter
E - 8th
S - 16th
. - note dotted
|-n-|  - n-tuplets


Tablature Legend
----------------
L - tied note
h - hammer on
p - pull off

Login or Register to remove this ad.