The Burdened (Crisis Core: Final Fantasy VII) Guitar Tab

Submitted: Jun 24, 2009 by ChelseaRare (Last updated: Feb 04, 2010)

5
Average: 5 (7 votes)
Download | Listen
Game: Crisis Core: Final Fantasy VII
Composer(s): Takeharu Ishimoto
Style: Arrangement, Fingerstyle
Series: Final Fantasy

AutoScroll: Slow | Medium | Fast
Crisis Core: Final Fantasy VII - The Burdened

Composed by: Takeharu Ishimoto
Tabbed by: ChelseaRare



     E  E  E  E  S S S S      E  E  E  E  S S S S  3x  E  E  E  E  Q     
E||----------------------||------------------------||--0--0--0-----0----|
B||-----------3--2-0-2-3-||------------3--2-0-2-3--||-----------3-------|
G||--0-----0-------------||*--0-----0-------------*||--0--------0-------|
D||-----4----------------||*-----4----------------*||--2--------2-------|
A||--2--------2----------||------------2-----------||-------------------|
E||--0-------------------||---0--------------------||-------------------|


  E  E  E  Q.        E  E  E  E  Q       E  E  E  Q    E     Q.     E  E  E   
------------------|--0--0--0-----0----|----------------2--|--3------3--2--3--|
-----0--1--0------|-----------3-------|-----0--1--0-------|------------------|
--2--------0------|--0--------0-------|--2-----0--0-------|--0------0--------|
--2--------0------|--2--------2-------|--2--------0----4--|---------2--------|
------------------|-------------------|-------------------|--3---------------|
------------------|-------------------|-------------------|------------------|


  Q.     Q.        Q.     E  E  E     Q.     Q.        Q.     Q    E   
--2-------------|--3------3--2--3--|--2-------------|-----------------|
---------3------|------------------|--3------3------|--------------3--|
---------0------|--0---------------|---------0------|--0------0----0--|
--4------0------|------------------|---------0------|--2------2-------|
----------------|--3---------------|--3-------------|--3--------------|
----------------|------------------|----------------|-----------------|


  Q.     Q.        Q.     Q    E     H.              Q.     Q.      
----------------|--------------2--|---------------|--0-------------|
--1------0------|-----------------|--3------------|---------3------|
--0------0------|--0------0----2--|---------------|--0------0------|
--2-------------|--2------0-------|--2------------|--2------2------|
----------------|--3--------------|--3------------|----------------|
----------------|-----------------|---------------|----------------|


  Q.     Q.        Q.     Q.        Q.     Q.        Q.     Q.      
----------------|--0------2------|--0-------------|----------------|
---------0------|----------------|---------0------|----------------|
--5------0------|--0------0------|--0------0------|----------------|
--4------2------|--2------2------|--2------2------|--2------4------|
----------------|----------------|----------------|--3------5------|
----------------|----------------|----------------|----------------|


  Q.     Q.        S  S  Q    Q.        Q.     Q.          Q.     E  E  E   
----------------|--------------------|----------------||-------------------|
----------------|--------------------|----------------||-------------------|
--0-------------|--------------------|--0-------------||*--0------0-----0--|
--2------0------|--2h-4p-2----4------|--2------4------||*--2---------4-----|
---------2------|--3--L--L----5------|---------5------||---3---------------|
----------------|--------------------|----------------||-------------------|

                                      -FIRST ENDING----  -SECOND ENDING---
  Q.     Q.        E  E  E  E  E  E     Q.     Q.          Q.     Q.      
----------------|--------------------|-----------------||---------2------|
----------------|--------------------|-----------------||--0-------------|
--0-------------|--0-----0--0-----0--|--2------0------*||--0-------------|
--0------0------|--2--4-----2--4--2--|--0------0------*||--2------4------|
---------2------|--3--------------3--|-----------------||----------------|
----------------|--------------------|-----------------||----------------|


  E  E  E  E  E  E     Q.     Q.        E  E  E  E  E  E     E.   E.  E.  E.   
--3--2--3--3--2--3--|--3-------------|--3--2--3--3--2--3--|--7----------------|
--------------------|---------3------|--------------------|------10---8---7---|
--0--------0--------|--0-------------|--0--------0--------|-------------------|
--------------------|--2------2------|--------------------|--9----7---5---4---|
--3-----------------|---------3------|--3-----------------|--7----------------|
--------------------|----------------|--------------------|-------------------|


  H.             
--0------------||
--0------------||
--0------------||
--2------------||
--2------------||
--0------------||




Duration Legend
---------------
W - whole
H - half
Q - quarter
E - 8th
S - 16th
. - note dotted


Tablature Legend
----------------
L - tied note
h - hammer on
p - pull off
Login or Register to remove this ad.

6 comments on The Burdened

AWSOME!!

5

sounds exactley like the song :D

whoa

12.75

ur a good tabber its amazing i love it

perfect... sutch a sad

perfect... sutch a sad song...

star?

5

What do the stars mean on the tab?

Those are repeat signs, so

Those are repeat signs, so repeat everything between those stars, which in this case is just one measure. Usually you only repeat once (two times total). But this tab has a 3x which means you repeat 2x (or 3 times total). Listen to the midi and you should understand.

Thanks!

Oh okay!