Skull Rock (Crash Team Racing) Bass/Guitar Tab

Submitted: Jan 02, 2017 by samisito

0
Download | Listen
Game: Crash Team Racing
Composer(s): Mark Mothersbaugh, Josh Mancell
Style: 2 or more instruments, Alternate picking, Transcription

AutoScroll: Slow | Medium | Fast
Song: Skull Rock
Game: Crash Team Racing
Composer: Josh Mancell
Tabbed by: samisito
Tabbed at: 12/31/2016


----------------
 Song structure
----------------
 - Riff 1
 - Riff 2
 - Riff 3
 - Riff 4
 - Riff 2
 - Riff 1
 - Riff 5
 - Riff 1
 - Riff 5
 - Riff 6
 - Riff 7
 - Riff 3
 - Riff 6
 - Riff 8




//////////////////
//    RIFF 1    //
//////////////////

Electric Guitar (Distortion)
e|-------------------------|-------------------------|-------------------------|-------------------------|
B|-------------------------|-------------------------|-------------------------|-------------------------|
G|-------------------------|-------------------------|-------------------------|-------------------------|
D|-------------------------|-------------------------|-------------------------|-------------------------|
A|----------------------5--|-------------------4--5--|----------------------5--|-------------------4--5--|
E|-3--0--3-----5--0--------|-3--0--3--5-----0--------|-3--0--3-----5--0--------|-3--0--3--5-----0--------|

Bass
G|-------------------------|-------------------------|-------------------------|-------------------------|
D|-------------------------|-------------------------|-------------------------|-------------------------|
A|----------------------5--|-------------------4--5--|----------------------5--|-------------------4--5--|
E|-3--0--3-----5--0--------|-3--0--3--5-----0--------|-3--0--3-----5--0--------|-3--0--3--5-----0--------|




//////////////////
//    RIFF 2    //
//////////////////

Electric Guitar (Distortion)
e|-------------------------|-------------------------|-------------------------|-------------------------|
B|-------------------------|-------------------------|-------------------------|-------------------------|
G|-------------------------|-------------------------|-------------------------|-------------------------|
D|-------------------------|-------------------------|-------------------------|-------------------------|
A|-------5-----------------|-5--7-----2--------------|-------5-----------------|-7--------5-----2--------|
E|-3-----3-----------0-----|-3--5-----0--------------|-3-----3-----------0-----|-5--0-----3-----0-----0--|

Electric Guitar (Clean)
e|-------------------------|-------------------------|-------------------------|-------------------------|
B|-------------------------|----------------5--3-----|-------------------------|----------------5-----3--|
G|-------------------------|-------------------------|-------------------------|-------------------------|
D|-------------------------|-------------------------|-------------------------|-------------------------|
A|-------------------------|-------------------------|-------------------------|-------------------------|
E|-------------------------|-------------------------|-------------------------|-------------------------|

Bass
G|-------------------------|-------------------------|-------------------------|-------------------------|
D|-------------------------|-------------------------|-------------------------|-------------------------|
A|-0-----------------0--2--|-0--------0--------4--5--|-0-----------------0--2--|-0--2-----------0--2-----|
E|----3--5--0-----3--------|----3-----------0--------|----3--5--0-----3--------|----------0-----------3--|




Electric Guitar (Distortion)
e|-------------------------|-------------------------|-------------------------|-------------------------|
B|-------------------------|-------------------------|-------------------------|-------------------------|
G|-------------------------|-------------------------|-------------------------|-------------------------|
D|-------------------------|-------------------------|-------------------------|-------------------------|
A|-------5-----------------|-5--7-----2--------------|-------5-----------------|-7--------5-----2--------|
E|-3-----3-----------0-----|-3--5-----0--------------|-3-----3-----------0-----|-5--0-----3-----0-----0--|

Electric Guitar (Clean)
e|-3-----3-----------------|-------------------------|-------------------------|-------------------------|
B|-------------------------|----------------5--3-----|-------------------------|----------------5-----3--|
G|-------------------------|-------------------------|-------------------------|-------------------------|
D|-------------------------|-------------------------|-------------------------|-------------------------|
A|-------------------------|-------------------------|-------------------------|-------------------------|
E|-------------------------|-------------------------|-------------------------|-------------------------|

Bass
G|-------------------------|-------------------------|-------------------------|-------------------------|
D|-------------------------|-------------------------|-------------------------|-------------------------|
A|-0-----------------0--2--|-0--------0--------4--5--|-0-----------------0--2--|-0--2-----------0--2-----|
E|----3--5--0-----3--------|----3-----------0--------|----3--5--0-----3--------|----------0-----------3--|




//////////////////
//    RIFF 3    //
//////////////////

Electric Guitar (Distortion)
e|-------------------------|-------------------------|-------------------------|-------------------------|
B|-------------------------|-------------------------|-------------------------|-------------------------|
G|-------------------------|-------------------------|-------------------------|-------------------------|
D|-2--------2--------------|-2--------2-----5--7--5--|-2--------2--------------|-2--------2-----5--7--5--|
A|-2--------2--------------|-2--------2-----5--7--5--|-2--------2--------------|-2--------2-----5--7--5--|
E|-0--------0--------------|-0--------0-----3--5--3--|-0--------0--------------|-0--------0-----3--5--3--|

Electric Guitar (Clean)
e|-------------------------|-7-----------------------|-------------------------|-5--------5--------------|
B|-------------------------|-8--------8--------------|-------------------------|-7-----------------------|
G|-------------------------|----------7--------------|-------------------------|----------5--------------|
D|-------------------------|-------------------------|-------------------------|-------------------------|
A|-------------------------|-------------------------|-------------------------|-------------------------|
E|-------------------------|-------------------------|-------------------------|-------------------------|

Bass
G|-------------------------|-------------------------|-------------------------|-------------------------|
D|-2-----------------------|-2-----------------------|-2-----------------------|-2-----------------------|
A|-------------------0--2--|----------------------5--|-------------------0--2--|----------------------5--|
E|----0--5--3--0--3--------|----0--0--3--0--3--5-----|----0--5--3--0--3--------|----0--0--3--0--3--5-----|




//////////////////
//    RIFF 4    //
//////////////////

Electric Guitar (Distortion)
e|-------------------------|-------------------------|-------------------------|-------------------------|
B|-------------------------|-------------------------|-------------------------|-------------------------|
G|-------------------------|-------------------------|-------------------------|-------------------------|
D|-2--------2--------------|-2--------2-----5--7--5--|-2--------2--------------|-2--------2-----5--7--8--|
A|-2--------2--------------|-2--------2-----5--7--5--|-2--------2--------------|-2--------2-----5--7--8--|
E|-0--------0--------------|-0--------0-----3--5--3--|-0--------0--------------|-0--------0-----3--5--6--|

Electric Guitar (Clean)
e|-------------------------|-7-----------------------|-------------------------|-5-----------------------|
B|-------------------------|-8--------8--------------|-------------------------|-7--------5--------------|
G|-------------------------|----------7--------------|-------------------------|----------5--------------|
D|-------------------------|-------------------------|-------------------------|-------------------------|
A|-------------------------|-------------------------|-------------------------|-------------------------|
E|-------------------------|-------------------------|-------------------------|-------------------------|

Bass
G|-------------------------|-------------------------|-------------------------|-------------------------|
D|-2-----------------------|-2-----------------------|-2-----------------------|-2-----------------------|
A|-------------------0--2--|----------------------5--|-------------------0--2--|----------------------5--|
E|----0--5--3--0--3--------|----0--0--3--0--3--5-----|----0--5--3--0--3--------|----0--0--3--0--3--5-----|




//////////////////
//    RIFF 5    //
//////////////////

Electric Guitar (Distortion)
e|-------------------------|-------------------------|-------------------------|-------------------------|
B|-------------------------|-------------------------|-------------------------|-------------------------|
G|-------------------------|-------------------------|-------------------------|-------------------------|
D|-------------------------|-------------------------|-------------------------|-------------------------|
A|-5-----------------------|-9--------5--------2-----|-5-----------------------|-5--------7-------7------|
E|-3-----------------------|-7--------3--------0-----|-3-----------------------|-3--------5-------5------|

Bass
G|-------------------------|-------------------------|-------------------------|-------------------------|
D|-------------------------|-------------------------|-------------------------|-------------------------|
A|-------------------------|-------------------------|-------------------------|-------------------------|
E|-3-----------------------|-7--------3--------0-----|-3-----------------------|-3--------5-------5------|




//////////////////
//    RIFF 6    //
//////////////////

Electric Guitar (Distortion)
e|-------------------------|-------------------------|-------------------------|-------------------------|
B|-------------------------|-------------------------|-------------------------|-------------------------|
G|-------------------------|-------------------------|-------------------------|-------------------------|
D|-------------------------|-------------------------|-------------------------|-------------------------|
A|-5-----------------------|-9--------5--------2-----|-5-----------------------|-5--------7-------7------|
E|-3-----------------------|-7--------3--------0-----|-3-----------------------|-3--------5-------5------|

Electric Guitar (Clean)
e|-------------------------|-8--------10-------8-----|-------------------------|-12-------10-------8-----|
B|-8--------10-------8-----|-8--------10-------8-----|-8--------10-------8-----|-12-------10-------8-----|
G|-7--------9--------7-----|-------------------------|-7--------9--------7-----|-------------------------|
D|-------------------------|-------------------------|-------------------------|-------------------------|
A|-------------------------|-------------------------|-------------------------|-------------------------|
E|-------------------------|-------------------------|-------------------------|-------------------------|

Bass
G|-------------------------|-------------------------|-------------------------|-------------------------|
D|-------------------------|-------------------------|-------------------------|-------------------------|
A|-------------------------|-0-----3--2--3-----------|-------------------------|-0-----3--2--3-----------|
E|-0-----3--2--3--------3--|----------------------3--|-0-----3--2--3--------3--|----------------------3--|




//////////////////
//    RIFF 7    //
//////////////////

Electric Guitar (Distortion)
e|-------------------------|-------------------------|-------------------------|-------------------------|
B|-------------------------|-------------------------|-------------------------|-------------------------|
G|-------------------------|-------------------------|-------------------------|-------------------------|
D|-------------------------|-------------------------|-------------------------|-------------------------|
A|-5-----------------------|-9--------5--------2-----|-5-----------------------|-5--------7-------7------|
E|-3-----------------------|-7--------3--------0-----|-3-----------------------|-3--------5-------5------|

Electric Guitar (Clean)
e|-------------------------|-7-----5-----------------|-------------------------|-7-----5-----------------|
B|-5-----5--7--8--5--------|----8-----8--5-----------|-5-----5--7--8--5--------|----8-----8--5-----------|
G|----7-----------------7--|----------------7-----7--|----7-----------------7--|----------------7-----7--|
D|-------------------------|-------------------------|-------------------------|-------------------------|
A|-------------------------|-------------------------|-------------------------|-------------------------|
E|-------------------------|-------------------------|-------------------------|-------------------------|

Bass
G|-------------------------|-------------------------|-------------------------|-------------------------|
D|-------------0-----------|-0-----------------------|-------------0-----------|-0-----0-----------------|
A|----------2-----2-----2--|----2-----0-----0--------|----------2-----2-----2--|----2-----0-----0-----2--|
E|-0--2--3-----------------|-------3--------------3--|-0--2--3-----------------|-------------------------|




//////////////////
//    RIFF 8    //
//////////////////

Electric Guitar (Distortion)
e|-------------------------|-------------------------|-------------------------|-------------------------|
B|-------------------------|-------------------------|-------------------------|-------------------------|
G|-------------------------|-------------------------|-------------------------|-------------------------|
D|-------------------------|-------------------------|-------------------------|-------------------------|
A|-5-----------------------|-9--------5--------2-----|-5-----------------------|-5--------7-------7------|
E|-3-----------------------|-7--------3--------0-----|-3-----------------------|-3--------5-------5------|

Bass
G|-------------------------|-------------------------|-------------------------|-------------------------|
D|-------------------------|-------------------------|-------------------------|-------------------------|
A|----------------------5--|-------------------4--5--|----------------------5--|-------------------4--5--|
E|-3--0--3-----5--0--------|-3--0--3--5-----0--------|-3--0--3-----5--0--------|-3--0--3--5-----0--------|

Login or Register to remove this ad.