Ads

N. Sanity Beach (Crash Team Racing) Guitar Tab

Submitted: Feb 26, 2016 by samisito (Last updated: Feb 27, 2016)

5
Average: 5 (1 vote)
Download | Listen
Game: Crash Team Racing
Composer(s): Mark Mothersbaugh, Josh Mancell
Style: 2 or more instruments, Alternate picking, Transcription

AutoScroll: Slow | Medium | Fast
Song: N. Sanity Beach
Game: Crash Team Racing
Composers: Mark Mothersbaugh, Josh Mancell
Tabbed by: samisito
Tabbed at: 02/25/2016




Bass
G|-------3--2--1-----------|-------------------1-----|
D|-------------------------|-------3-----------------|
A|-1-----------------------|-------------------------| x2
E|----------------4-----0--|-1-----------0--1-----0--|




Guitar
e|-13----9--10-------------|----8-----9-----9--8-----|
B|-------------11-------8--|-11-------------------11-|
G|-------------------------|-------------------------|
D|-------------------------|-------------------------|
A|-------------------------|-------------------------|
E|-------------------------|-------------------------|

Bass
G|-------3--2--1-----------|-------------------1-----|
D|-------------------------|-------3-----------------|
A|-1-----------------------|-------------------------|
E|----------------4-----0--|-1-----------0--1-----0--|




Guitar
e|-13----9--10-------------|----------8-----9--------|
B|-------------11-------8--|-11-8--------------11-10-|
G|-------------------------|-------------------------|
D|-------------------------|-------------------------|
A|-------------------------|-------------------------|
E|-------------------------|-------------------------|

Bass
G|-------3--2--1-----------|-------------------1-----|
D|-------------------------|-------3-----------------|
A|-1-----------------------|-------------------------|
E|----------------4-----0--|-1-----------0--1-----0--|




Guitar
e|-------------------7-----|-------------------------| \
B|-8--------8--------------|-------------------10----|  |
G|-------------------------|-7--------7--------------|  |
D|-------------------------|-------------------------|  |
A|-------------------------|-------------------------|  |
E|-------------------------|-------------------------|  |
                                                        | x2
Bass                                                    |
G|-------0-----------------|-------------------------|  |
D|-------------------------|-------------------3-----|  |
A|-------------2--4-----5--|----5--4--2--5--2--------|  |
E|-3--------3--------------|-------------------------| /



Guitar
e|----------10----10-------|-10h12-------10--------------|
B|-12----12-10----10-12----|-------------------12--------|
G|-11----11----------11----|-----------------------------|
D|-------------------------|-----------------------------|
A|-------------------------|-----------------------------|
E|-------------------------|-----------------------------|

Bass
G|-------0-----------------|-------------------------|
D|-------------------------|-------------------------|
A|-------------2--4-----5--|----5--4--2--5--2--------|
E|-3--------3--------------|-------------------1-----|




Guitar
e|----------10----10-------|-15-17-15----------------|
B|-12----12-10----10-12----|----------17-15-17-15-12-|
G|-11----11----------11----|-------------------------|
D|-------------------------|-------------------------|
A|-------------------------|-------------------------|
E|-------------------------|-------------------------|

Bass
G|-------0-----------------|-------------------------|
D|-------------------------|-------------------------|
A|-------------2--4-----5--|----5--4--2--5--2--------|
E|-3--------3--------------|-------------------1-----|



Guitar
e|-------------------------|-10-------10-------12----|
B|-------------------10----|-------------------------|
G|-12-------12-------------|-------------------------|
D|-------------------------|-------------------------|
A|-------------------------|-------------------------|
E|-------------------------|-------------------------|

Bass
G|-------------------------|-------------------------|
D|-------------------------|-------------------------|
A|-------------------------|-------------------------|
E|-3-----3-----3-----3-----|-3-----3-----3-----3-----|




Guitar
e|-------------------10----|-13-------10-------13----|
B|-13-------13-------------|-------------------------|
G|-------------------------|-------------------------|
D|-------------------------|-------------------------|
A|-------------------------|-------------------------|
E|-------------------------|-------------------------|

Bass
G|-------------------------|-------------------------|
D|-------------------------|-3-----3-----3-----3-----|
A|-3-----3-----3-----3-----|-------------------------|
E|-------------------------|-------------------------|

Login or Register to remove this ad.