Ads

Recent comments

Comment Posted on Submittedsort icon

A very nice remix of .kkriegers tab. The full chord strumming is nice and the extra bass notes in the melody really add a lot of fullness to the song.

Your only mistake is that the 3rd chord is supposed to be A# major not A# minor.

Windmill Hut 8 weeks 2 days ago

Nice!!!!!

Aishiteru 8 weeks 2 days ago

Pure Badassery!

Departure 8 weeks 2 days ago

very difficult to play

Route 113 8 weeks 2 days ago

Woah

Tifa's Theme 7 weeks 6 days ago

Great job!

EXEC_CHRONICLE_KEY 7 weeks 6 days ago

Wonderful! Thanks so much for making this. Especially love bar 6 of the faithful version.

Kraid's Lair 7 weeks 5 days ago

You're welcome. These last bars from the faithful version can be tricky to play at full speed, that's why i made a simplified one too.

Kraid's Lair 7 weeks 5 days ago

This tab fulfills: Adachi and Shimamura tab help

I copied it to clipboard and tried manually typing it, but the field rejected saying "no valid request with that name found". :/ It's for insomniacmln

Thanks!

Adachi and Shimamura 7 weeks 5 days ago

Great song and a great tab.

Aishiteru 7 weeks 5 days ago

amazing

N's Farewell 7 weeks 5 days ago

Thanks for making tabs out of ヨスガノソラ's soundtracks! You're amazing!!!

Memory 7 weeks 5 days ago

nice!

Museum (Art Exhibit) 7 weeks 4 days ago

Thanks again for posting this. I'll be playing this all day now. :D

Adachi and Shimamura 7 weeks 4 days ago

Enjoy!!

Adachi and Shimamura 7 weeks 4 days ago

this is pretty heavy. you must be so good now 14 years later.

Eternity: Memory of Lightwaves 7 weeks 3 days ago

This song seems like an odd choice for a fingerstyle arrangement but it turned out pretty good.

Waterfall 7 weeks 2 days ago

Sounds nice, very different from the original. More reflective and somber, instead of energetic.

Waterfall 7 weeks 2 days ago

Yep, the original is too energetic, our fingers won't be able to keep up with the speed lol

Also, a funny fact: the original Guitar Pro file is from 2012 but i brought it back from the vault to finish it hehe

Waterfall 7 weeks 2 days ago

I played this in high school, it attracted the principal :o killer song for ladyes

Map Screen 7 weeks 1 day ago

Perfect!

Memories With the Family 7 weeks 10 hours ago

Sound's perfect

Track 03 7 weeks 10 hours ago

I'm reading the FF collection tab and playing on top of the actual track : you're wrong both times.
You shouldn't correct people if you're not sure.

It's E and F#, no doubt on that.

Melodies of Life 6 weeks 6 days ago

This song is a great warmup for the fingers.. nice tab!

Waterfall 6 weeks 6 days ago

Tnx!

Waterfall 6 weeks 6 days ago
Part 3 A minor chords fixed...
  Part 3
   Am                            G                             F                             G
   |-3-|  |-3-|  |-3-|  |-3-|    |-3-|  |-3-|  |-3-|  |-3-|    |-3-|  |-3-|  |-3-|  |-3-|    |-3-|  |-3-|  |-3-|  |-3-|
e-----------------------------|-----------------------------|-----------------------------|-----------------------------|
B---------1---1------0--1-----|--0--------------------------|---------1---1------0--1-----|--0-------------------(0)----|
G--2------2---2--2------2-----|---------0------0------------|--2------2---2--2------2-----|---------0---0---------0-----|
D---------2---2---------2-----|---------0---0---------0-----|---------3---3---------3-----|---------0---0---------0-----|
A--0--------------------------|---------2---2---------2-----|-----------------------------|-----------------------------|
E----------------0------------|--3-------------3------------|--1-------------1------------|--3-------------3------------|

   E7                            Am                            F                             G7
   |-3-|  |-3-|  |-3-|  |-3-|    |-3-|  |-3-|  |-3-|  |-3-|    |-3-|  |-3-|  |-3-|  |-3-|    |-3-|  |-3-|  |-3-|  |-3-|
e-----------------------------|--0------------------------0-|--1------0------1------------|--3---3--1-------------------||
B--0-----(0)-----0---1--3-----|---------1------1------1-3---|---------1---1---------3---3-|----------------3------0-----||
G---------1---1---------1-----|---------2---2---------2-----|---------2---2---------2-----|---------0-------------------||
D---------2---2---------2-----|---------2---2---------2-----|---------3---3---------3-----|---------3-------------3-----||
A-----------------------------|--0-------------3------------|-----------------------------|-----------------------2-----||
E--4-------------0------------|-----------------------------|--1-------------1------------|--3-------------3------------|| To Coda
Glitter Gulch Mine 6 weeks 6 days ago
   Main Loop
   q  q  q  q     q  q  q  q     q  q  q  q     q  q  q  q
e--0-----3-----|--1-----------|--0--3--10-8--|--1-----------|
B--------------|--------3-----|--------------|--------3-----|
G-----0-----0--|-----0-----0--|-----0-----0--|-----0-----0--|
D--------2-----|--0-----3-----|--------------|--0-----3-----|
A--3-----------|--------------|--3-----7-----|--------------|
E--------------|--------------|--------------|--------------|
Bedroom 6 weeks 6 days ago

Awesome! Loved to play it

Schala's Theme 6 weeks 5 days ago

This is awesome!

Fun Fun Fun Dayo 6 weeks 5 days ago

This is one of the most epic songs ever.

The Day The World Revived 6 weeks 5 days ago

thank you, really appreciate it!

Waterfall 6 weeks 4 days ago

You're welcome!

Waterfall 6 weeks 4 days ago

Hell yes! Have wanted a tab of this for many years. Great job!

Glitter Gulch Mine 6 weeks 3 days ago

cool stuff

Glitter Gulch Mine 6 weeks 1 day ago

You are the true Gitaroo man!

The Legendary Theme (Acoustic) 6 weeks 1 day ago

Exactly what I was looking for. Something simple but powerful and deep.

To Zanarkand 6 weeks 1 day ago

nice

Berceuse 6 weeks 17 hours ago

The fact that this only had 1 rating in all of 12 years just goes to show that old school game ost deserve more attention. this is phenomenal. thank you.

Lemele Town 6 weeks 17 hours ago

so good

Stickerbrush Symphony 6 weeks 16 hours ago

wonderful arrangement of a beautiful song!

Btw its supposed to be played with a capo on 1 as he shows in the video, the tab just doesn't say it.

Moonlight Night Theme 6 weeks 7 hours ago

Suikoden has such good soundtracks

A Peaceful Mountain Village 5 weeks 6 days ago

you should be on youtube

Boss Battle Theme 5 weeks 6 days ago

this is so beautiful.

Hang in There, Peach! 5 weeks 6 days ago

very nice

Ending 5 weeks 6 days ago

AMAZING

Last Train Home 5 weeks 6 days ago

Never played the game, but that is a good tab: great song choice.

Dark Manor 5 weeks 6 days ago

nice

Lost Woods 5 weeks 6 days ago

I know this is 12 years later, and I am the only one to ever rate or comment, but I just wanted to say that this is fn sick.

The Pit 5 weeks 6 days ago

I never actually watched this show, but this song is beautiful and the arrangement is great :D

Kaze ga Soyogu Basho 5 weeks 6 days ago

just highlighting this version is a carbon copy of an arrangement floating around the web (Songsterr for example). This arrangement is a slightly inaccurate Sungha Jung version based off of: https://www.youtube.com/watch?v=2Z603ccaj74

Main Theme 5 weeks 5 days ago