Ads

Recent comments

Comment Posted on Submittedsort icon

NUMBER ONE TAB LETS,GOOOOOO

Corridors of Time (Washi981 Version) 15 hours 52 min ago

Sounds a little more accurate if you add a capo on 5, but a fantastic tab.

Littleroot Town 17 hours 59 min ago

there isn't two notes like that
instead of

4---5---7
2---3---5

it should have been

4---8
2---6 then continue

King of the Koopas 2 days 15 hours ago

Hey! This has been in approval for a week, is everything ok?
Ta!
Tom

Nap Time 2 days 20 hours ago

Please delete this.
(edited)Thank you!

Sootopolis City 3 days 17 min ago

Love this song, thank you so much!

After the Shower 4 days 13 hours ago

Thank you!
But no I'm not the true Gitarooman, the master difficulty is ridiculous.

The Legendary Theme (Acoustic) 5 days 4 hours ago

This is a great solo guitar arrangement. You are the true Gitaroo Man!

The Legendary Theme (Acoustic) 6 days 14 hours ago

Thank you! I tabbed it for my girlfriend.

I forgot to mention that I like to put a capo on the 5th fret. Some of the notes are hard reach otherwise.

The Legendary Theme (Acoustic) 1 week 10 hours ago

What a wonderful first tab! Hope to see many more.

The Legendary Theme (Acoustic) 1 week 1 day ago

The performance of the piece is in the original key with the sixth string tuned in D and the fifth string tuned in G unlike the arrangement contained in the official final fantasy for guitar

the day will come 1 week 3 days ago

Been hoping someone would do this for a while. It actually grooves super well on guitar. Thanks!

Rustboro City 1 week 5 days ago

You're the goat for dumping the few tabs you just posted all at once. All are great transcriptions.

Seafolk Village (Night) 1 week 5 days ago

awesome tab brother, thanks for sharing

Littleroot Town 1 week 5 days ago

I don't why but some note don't appear in the tabs

Lost in Thoughts All Alone 1 week 5 days ago

the tabs say

E|-------------------------|
B|-5-----------7-----------|
G|-6-----------7-----------|
D|-----0---0-------0---0---|
A|-0-----------------------|
D|-------------------------|

but in the video you play

E|-------------------------|
B|-5-----------7-----------|
G|-6-----------7-----------|
D|----<7>-<7>-----<7>-<7>--|
A|-0-----------------------|
D|-------------------------|
Comet Observatory 1 week 5 days ago

fucking perfect although i'll probably die of old age before i can do the artificial harmonics

From Past to Present 1 week 5 days ago

If there is error when downloading the gp5 or midi file,
you can download them from below.

gp5

https://drive.google.com/file/d/1HDnQbyLL8iZZ8g1RNZjYBPM0m03hPIA9/view?usp=sharing

midi

https://drive.google.com/file/d/1GkJzR6nN9qaIvQNOFhXoKRym1svuFOnS/view?usp=sharing
Rustboro City 1 week 6 days ago

Great job! Thanks for playing my tab! ;D

Theme of Mitsuha 2 weeks 2 days ago

What size guitar do you play on?

Dungeon 2 weeks 2 days ago

Sorry he missed some note

Lost in Thoughts All Alone 2 weeks 3 days ago

Sorry i have a mistake in 1st bar.
please play like this.

                    v here edited
E |--0-------------------------|----------------------------||
B |-----4--0-------------------|--0-------------------------||
G |-----------2--1-----1--2----|----------------------------||
D |-----------------4----------|-----------2-----------1----||
A |----------------------------|--------------2--2--4-------||
E |--0-----------0-------------|--0-------------------------||
Fortree City 2 weeks 5 days ago

Angels of the guitar and all tips ache been marked for the future items. Patterns of the angels and uk dissertation are hoisted for the movement for all scores. The part is played for the citizens. An angel's guitar forum is planned for the division of the chanting elements or the field.

Angel's Fear 2 weeks 6 days ago

Idk if this is right it doesn't sound good on my guitar . Iether way watch my youtube stream it is therabidpancake both on twitch and Youtube .

Main Theme 3 weeks 1 day ago

Good tabs. I love this tune.

Ending 3 weeks 2 days ago

Such a beautiful tab. Brings back all the memories of playing FFIV. Thank you!

Kids Run Through The City Corner 3 weeks 3 days ago

thats great. thanks

Sea Shanty 2 3 weeks 5 days ago

Mmmm new I was gonna enjoy this from that percussive opening.

Cosmo Canyon 3 weeks 6 days ago

It is true that many transcriptions did not take much care of this part, fundamental in my opinion, of the piece that highlights the beautiful and simple melody.

alone 4 weeks 1 hour ago

Well done sir, your right it's an often overlooked part of the soundtrack.

alone 4 weeks 20 hours ago

Very awesome, way fun to play

Ahead On Our Way 4 weeks 3 days ago

It's a great tab, good job on it =)

Your original version only has 2 open notes in it and a ton of fret 1s, whenever I see that I consider a capo even if it's still perfectly playable with all the 1s. Just don't take my transposition as me judging your tab haha, just trying to be helpful for the community.

The Wavering Blade/Sword of Doubt 4 weeks 3 days ago

Amazing

U.N. Owen was her 4 weeks 4 days ago

Ottima esecuzione

Frozen Flame 4 weeks 6 days ago

Very nice

Opening Theme 4 weeks 6 days ago

good

A New World 5 weeks 1 day ago

I get "Access Denied" when I try to download the tab :'(

Alone 5 weeks 2 days ago

nice first tab! only thing i will say is that i think the first line goes more like this

E|-8-------------------|
B|----------------6----|
G|-----------5---------|
D|------7--------------|
A|-8-------------------|
E|---------------------|

note timings could be worked on too (i.e. correct amount of notes per bar) but knowing the song makes it easy enough to play as is. good job!

Tifa's Theme 5 weeks 4 days ago

Thank you for this.

Hollow 5 weeks 5 days ago

Thanks!

The First Campaign 5 weeks 6 days ago

This tab is absolutely fantastic.

A little info to potentially add on - I was fiddling around with a capo and tunings. If you want to play this in the original key, tune down half a step.

EbAbDbGbBbEb tuning :)

Carrying You 5 weeks 6 days ago

This tab is a labor of love, and it shows

Descendant of Shinobi 6 weeks 21 hours ago

oh, nice, the fingerings weren't too difficult so i had not think too much about transposing it.

The Wavering Blade/Sword of Doubt 6 weeks 5 days ago

Nice job with this. I think it could really use a capo fret 1, so for anyone who would like that here it is transposed down a fret.

E|------------------5---4-------------|------------------2---0-------------|------------------5---4-------------|
B|-----4---5---7----------------------|-----0---2---4----------------------|-----4---5---7----------------------|
G|-6----------------------------------|-2----------------------------------|-6----------------------------------|
D|------------------------------------|------------------------------------|------------------------------------|
A|-4--------------------------4---2---|-0--------------------------0---2---|-4--------------------------4---6---|
E|------------------------------------|------------------------------------|------------------------------------|


E|-------------5----8---7------|-------------5----5---7---5-------------------|--------|
B|-5---7---8-------------------|-5---7---8--------------------8---7---5-------|-5------|
G|-----------------------------|------------------------------------------7---|--------|
D|-----------------------------|----------------------------------------------|--------|
A|-7---------------------------|-7--------------------------------------------|-7------|
E|-----------------------------|----------------------------------------------|--------|


E|----------------------0-----------------------|-----0--------------------------|
B|-----0---1---3----3-------3---1---0-----------|---------3---1---0--------------|
G|-2------------------------------------2---0---|---------------------0---2------|
D|----------------------------------------------|-3------------------------------|
A|-0--------------------------------------------|-0------------------------------|
E|----------------------------------------------|--------------------------------|


E|------------------5---4-------------|------------------2---0-------------|------------------5---4-------------|
B|-----4---5---7--------5-------------|-----0---2---4--------2-------------|-----4---5---7--------5-------------|
G|-6--------------------6-------------|-2--------------------2-------------|-6--------------------6-------------|
D|-6--------------------6-------------|-2--------------------2-------------|-6--------------------6-------------|
A|-4--------------------4-----4---2---|-0--------------------0-----0---2---|-4--------------------4-----4---6---|
E|-4--------------------4-------------|-0--------------------0-------------|-4--------------------4-------------|


E|------------------8---7------|----------------------7-----------------------|--------|
B|-----7---8---10-------8------|-----7---8---10---10------10--8---7-----------|--------|
G|-9--------------------9------|-9--------------------9---------------9---7---|-9------|
D|-9--------------------9------|-9--------------------9-----------------------|-9------|
A|-7--------------------7------|-7--------------------7-----------------------|-7------|
E|-7--------------------7------|-7--------------------------------------------|-7------|


E|----------------------0-----------------------|-----0--------------------------|
B|-----0---1---3----3-------3---1---0-----------|---------3---1---0--------------|
G|-2--------------------2---------------2---0---|---------------------0---2------|
D|-2--------------------2-----------------------|-3-----------------------2------|
A|-0--------------------0-----------------------|-0-----------------------2------|
E|-0--------------------------------------------|-------------------------0------|
The Wavering Blade/Sword of Doubt 6 weeks 6 days ago

Thanks for your tabs! I have played many of your FFIII recordings.

Descendant of Shinobi 7 weeks 21 hours ago

how can i do this

Redemption 7 weeks 1 day ago

I don't know how no one ever rated this. I really loved it!

Overworld 7 weeks 1 day ago

One of your best works, and imo, one of the best tabs on the site. This is truly amazing work - thank you!

Descendant of Shinobi 7 weeks 2 days ago

wow thats fun to play. thanks again mr. jordan for another great tab

Descendant of Shinobi 7 weeks 2 days ago

nicee

Wish of the Stars 7 weeks 2 days ago