Ads

Recent comments

Comment Posted on Submittedsort icon

Going by this vid, https://www.youtube.com/watch?v=SznnVAnkv3c&ab_channel=InfernalEntertain

the capo isn't needed. the notes match with no capo

Danny 5 days 20 hours ago

Amazing how, years after years after years, you keep on bringing the good stuff to us!
Thanks for not letting us down ^^

Awake 1 week 2 days ago

this song is so cool. my favorite to play recently.

Hana Saku Machi no Waltz 2 weeks 12 hours ago

@thedstring If you click the link from his video ( https://drive.google.com/file/d/1JNA0Bg-pnsbrmhz65aVtOHNeO2rVS40W/view ) you can download the PDF which has the complete annotation in both sheet and tab

I guess this tab is so good he had to make us work for it a little ( ;

Aerith's Theme 2 weeks 16 hours ago

Wow very beautiful arrange!

Stay Alive 2 weeks 17 hours ago

Ha! Can't believe I missed this one. Favorited

Houkiboshi 2 weeks 17 hours ago

Probably one of my favorite tabs & songs ever : )

Last Wanderlust 2 weeks 2 days ago

Legendary. Do you have a Youtube channel or something?? Your arrangements are superb

Secret of the Forest 2 weeks 2 days ago

This feels like it's missing half of the tab.

Like, the chords are correct and in the correct order, but it sounds nothing like the recording from all the missing notes. This is like 60% of the real thing. I understand skipping notes to make an easier version, but it's missing so many important notes that would still make you recognize the original song.

Also the notes that should be played as harmonics are not noted as so.

I would love to have this fixed up as the recording linked at the top is kind of amazing.

Aerith's Theme 2 weeks 2 days ago

Beautiful playing <3

Aerith's Theme 2 weeks 4 days ago

For the only Hollow Knight song on this darned website, this has got to be the easiest and best song ever!! Thank you so much for making it!!

Menu Theme 2 weeks 4 days ago

Really good, this is one of my favorite pieces of FF music, I really need to learn it for mandolin someday.

Eternity, Memory of Lightwaves 2 weeks 6 days ago

As with pretty much every other one of your megaman tabs they're very on point although usually realll hard.

Needle Man 3 weeks 1 day ago

Very well played man, and cool build up too :)

But The Earth Refused To Die 3 weeks 2 days ago

it's pretty cool version for beginner! thanks you!

Main Theme 3 weeks 2 days ago

should space the frets instead of leaving them together like this. hard to read.

Rain 3 weeks 3 days ago

I haven't had much time to play with AWS yet but I'm assuming the folder needs to be re-uploaded because the "Download Files" permission didn't apply correctly.

Via Purifico 4 weeks 3 days ago

Awesome work!

There are a few places I'd change, but nothing major at all:

---------7----|-0----0--------------|
-3------------|-0----0---------3----|
--------------|-2----1--------------|
---------0----|---------------------|
-----0--------|---------------------|
-1------------|-0----0--------------|

to

---------7----|-5----4--------------|
-3------------|-0----0---------3----|
--------------|---------------------|
---------0----|---------------------|
-----0--------|---------------------|
-1------------|-0----0--------------|

The voicing up higher seems to match a little nicer for me, but what you wrote is definitely still great sounding.

Secondly, about half way down the song it seems like we've got a note that's flat in the first measure and a missing note in the second:

from

|-------------------------2-------|---------------------------------|
|---------------------2-------5---|-------------------------2---3---|
|-3---------------2---------------|---------2-----------2-----------|
|---------2-----------------------|-----4-------4-------------------|
|-----4-------4-------------------|-2---------------2---------------|
|-2---------------2---------------|---------------------------------|

to

|-------------------------2-------|---------------------------------|
|---------------------2-------5---|-3-----------------------2---3---|
|-3---------------3---------------|---------2-----------2-----------|
|---------2-----------------------|-----4-------4-------------------|
|-----4-------4-------------------|-2---------------2---------------|
|-2---------------2---------------|---------------------------------|

Definitely favoriting this song, it's great =)

Frontier Village Dali 4 weeks 4 days ago

OK weird! for some reason access to certain files that should be public is denied on the AWS server - not sure if this is something that can be fixedthrough configuration of the server we're using.

Anyway, until that's working, here is a link which has the gp5/txt/midi https://gofile.io/?c=ymuKmE

Via Purifico 5 weeks 1 day ago

Merry Christmas!

Tristram Theme 5 weeks 1 day ago

Could you provide an alternative link? For some reason there are a lot of tabs when you het get the message "This XML file does not appear to have any style information associated with it. The document tree is shown below." when trying to download the file on some pages of the site, including this one.

Via Purifico 5 weeks 1 day ago

Finally (!) got around to playing this all the way through in one shot and I have to say, this arrangement is genuinely epic.

A Serpent of the Twilight 5 weeks 5 days ago

I’m in awe. Very great tab. Good job.

Windmill Hut 5 weeks 6 days ago

It should be in D-Standard

Dummy! 6 weeks 2 days ago

Really enjoyed it. I need to check out the album soon. I loved the first two games back on the old geneses.

Title Theme 6 weeks 4 days ago

I don’t know about you, but my guitar doesn’t have 27 frets.

Zelda's Lullaby 7 weeks 14 hours ago

The video clearly shows the guy playing with capo 1. That means all your notes are off. You tabbed the frets he was playing, but you didn't note that he's in capo 1. That means all your open strings (0s) are actually 1s. Normally when writing in a capo, you transpose all the notes down. That would mean in the context of capo 1, the open strings are still 0, but all the 9s are 8s and the 6s are 5s, etc. It's confusing to read your tab otherwise.

Ex:

capo 1

[Intro] 0:00
   1   e   +   a   2   e   +   a   3   e   +   a   4   e   +   a  
E|---------0---------------0---------------0---------------0---------|
B|---------0---------------0---------------0---------------0---------|
G|-11--------------11--------------11--------------11----------------|
D|-12--------------12--------------12--------------12----------------|
A|-------------------------------------------------------------------|
E|-------------------------------------------------------------------|

measure of 5/4:
   1   e   +   a   2   e   +   a   3   e   +   a   4   e   +   a  
E|-0---------------0---------------0---------------0-----------------|
B|-10--------------10--------------10--------------10----------------|
G|---------12--------------12--------------12--------------12--------|
D|-------------------------------------------------------------------|
A|-------------------------------------------------------------------|
E|-------------------------------------------------------------------|


This would be the correct way to notate what he's playing. If you're not using a capo, it would be 


[Intro] 0:00
   1   e   +   a   2   e   +   a   3   e   +   a   4   e   +   a  
E|---------1---------------1---------------1---------------1---------|
B|---------1---------------1---------------1---------------1---------|
G|-12--------------12--------------12--------------12----------------|
D|-13--------------13--------------13--------------13----------------|
A|-------------------------------------------------------------------|
E|-------------------------------------------------------------------|

measure of 5/4:
   1   e   +   a   2   e   +   a   3   e   +   a   4   e   +   a  
E|-1---------------1---------------1---------------1-----------------|
B|-11--------------11--------------11--------------11----------------|
G|---------13--------------13--------------13--------------13--------|
D|-------------------------------------------------------------------|
A|-------------------------------------------------------------------|
E|-------------------------------------------------------------------|
The Legend of Zelda - Breath of the Wild Theme 8 weeks 2 days ago

The first bit is very accurate to the theme, however when you get to the high pitch section of the song, it doesn't seem like it's that accurate, and it's also missing the beginning and "grand resolution" sections, but overall, very good for a first tab.

Koopa Kid Castle 8 weeks 3 days ago

Oooh, you are recording again!

That was a treat, thank you, i really enjoyed it!

Sunshine Coastline 8 weeks 3 days ago

Sure, here:
https://yadi.sk/d/nZjmEnmw-pWS2Q
I have same problem that you have described. I'm a new one on this site, so.

Fallen Down 8 weeks 4 days ago

Could you provide an alternative link? Recently there have been more and more cases when I get "This XML file does not appear to have any style information associated with it. The document tree is shown below." when trying to download the file on some pages of the site, including this one.

Fallen Down 9 weeks 20 hours ago

nice

"Scarlet Night" a Castlevania (1986-1996) Tribute Album 9 weeks 1 day ago

Cool thx

Via Purifico 9 weeks 3 days ago

you need to use the <.pre> and <./pre> tags before and after your commented to to define pre-formatted text and have it displayed in a fixed width font (just delete the . from each)

for example...

without tags

E|-------------------------|----------------|-7-----------7-----------|-7----4----5----|
B|-7-----------7-----------|-7----4----5----|---------5-----------5---|----------------|
G|---------4-----------4---|----------------|-----5-----------5-------|----------------|
D|-----5-----------5-------|----------------|-------------------------|----------------|
A|-------------------------|----------------|-0-----------------------|-0--------------|
E|-0-----------------------|-0--------------|-------------------------|----------------|

with tags

E|-------------------------|----------------|-7-----------7-----------|-7----4----5----|
B|-7-----------7-----------|-7----4----5----|---------5-----------5---|----------------|
G|---------4-----------4---|----------------|-----5-----------5-------|----------------|
D|-----5-----------5-------|----------------|-------------------------|----------------|
A|-------------------------|----------------|-0-----------------------|-0--------------|
E|-0-----------------------|-0--------------|-------------------------|----------------|

hope that helps :)

Sons of Skyrim 9 weeks 3 days ago

tried it to show the intro but different and every time the notes move out of place :(

Sons of Skyrim 9 weeks 4 days ago

without even reading the name i could tell who arranged this; i love your use of harmonics.

Zelda's Lullaby 10 weeks 15 hours ago

Lovely, favorited!

Zelda's Lullaby 10 weeks 1 day ago
i like this! anyone having trouble with these shapes:

E|-------------------------|
B|---4---------------------|
G|---6------------9--------|
D|---7------------10-------|
A|---6------------7--------|
E|----------------8--------|

you can tune high E down a half-step to D# and play it like this instead

D#|---0------------1--------|
B |---2------------1--------|
G |---2---------------------|
D |---1------------2--------|
A |----------------3--------|
E |-------------------------|

Come and See 10 weeks 4 days ago

in the third line, the 2nd B9 (B6 -> B9 ->e11) should be an e8 instead!

e---8--8h9p8--6--6h8p6----------8--11-9--9h11p9--8--8h9p8--6---8-9-----
B------------------------------9-----6------------------------------------------
G-------------------------------------------------------------------------------
D-------------------------------------------------------------------------------
A-------------------------------------------------------------------------------
E-------------------------------------------------------------------------------

Petalburg City 10 weeks 4 days ago

hi reupload the album please in facebook thanks!

Gametabs Boss Battle Album 10 weeks 4 days ago

I am sorry, but this is the Intro. Maybe it was the Level theme you were thinking about.

Intro 11 weeks 5 days ago

Just wanted to say that I STILL keep coming back to this arrangement because it is the best. I recorded a rendition of this at my wedding and everyone loved it. (even the ones that didn't realize it was from a video game.)

Millennial Fair 12 weeks 13 hours ago

gostava de ver a musica completa

Nate's Theme 12 weeks 17 hours ago

the harmonics are so pretty, and fun to play too.

Star Locket Melody 12 weeks 1 day ago

I just realized that the ASCII tab I submitted does not have note durations on it. Is there some way that I can go from a .GP5 file to an ASCII tab with said duration labels?

Mice on Venus 12 weeks 3 days ago

Help with the numbers plz!

Green Hill Zone 13 weeks 5 days ago

:D

Wishful Thinking 14 weeks 13 hours ago

Nice one! Just posted the Dog Ending myself. Today is a big day for SH2 on this site. :D

Wishful Thinking 14 weeks 20 hours ago

Cool man!!! Oh the memories...

Giza Plains 14 weeks 20 hours ago

That was beatiful! I could swear i have played an easier arrangement of this somewhere.

Star Locket Melody 14 weeks 2 days ago