Ads

Recent comments

Comment Posted on Submittedsort icon

Nice!

Title Theme 1 day 13 hours ago

Nice!

Nap Time 1 day 13 hours ago

I think in our time it is not a problem to buy some kind of written work, whether it be an essay or some kind of scientific work. I have been using DoMyEssay for a long time now and currently do my essay for me so I can safely say that they are the best company I have worked with in this area. So I can only wish you good luck in life and study

essay writer for usa 1 day 19 hours ago

2

essay writer for usa 1 day 19 hours ago

1

essay writer for usa 1 day 19 hours ago

Wow I have been waiting for a good arrangement of this. Really nice!

Sunset Waltz 1 week 11 hours ago

Love it.

Beneath the Canopy (Forest Interlude) 1 week 5 days ago

Hey so nice to see your name back in here :)

Palm Brinks 1 week 6 days ago
Game: Transistor
Track: Coasting
Composer: Darren Korb
Tabber: Konstantin Grenelef

Full sheet music and tab in PDF format:
https://drive.google.com/file/d/1pWfuKv96UbqTASAT7aJ6YKWscCFwxCny/view?u...
Audio in MP3 format: 
https://drive.google.com/file/d/1ljBaZ1LIkCmU0yHofHUWQVgw90XrzeoL/view?u...

Verse:
e-----------------------6--------------------5--------------------------------------------------------5--
B-----6-----6-----6-----6--------5-----5-----5-----8-----6-----6-----6-----6--------5-----5-----8-----5--
G-----5-----5-----7-----7--------6-----6-----5-----7-----5-----5-----7-----7--------6-----6-----7-----6--
D-----7-----7-----6--------------5-----5-----------8-----7-----7-----6-----6--------5-----5-----8--------
A--5-----------------8--------------7-----8-----7-----5-----------------8--------7-----------7-----7-----
E--------5-----6-----------6--5-----------------------------5-----6-----------6--------5-----------------

Chorus:
e--0--0--0--0-----------0--0--0--0-----------0--0--0--0-----------------0--0--0--0-----------0--0--------
B--0--0--0--0-----------0--0--0--0-----------0--0--0--0-----------------0--0--0--0-----------0--0--------
G--4--4--4--4-----------3--3--3--3-----------2--2--2--2-----------------1--1--1--1-----------1--2--------
D--5--5--5--5-----5-----4--4--4--4-----4-----3--3--3--3-----3--3--------2--2--2--2--------0--2--3--------
A--5--5--5--5--5-----5--4--4--4--4--4-----4--3--3--3--3--3--------3-----2--2--2--2--2--3-----2--3--------
E--3--3--3--3-----------2--2--2--2-----------1--1--1--1--------------1--0--0--0--0-----------0--1--------

e--0--0--0--0--------0--0--0--0--0-----------0--0--0--0--0-----------0--0--0-----------------------------
B--0--0--0--0--------0--0--0--0--0-----------0--0--0--0--0-----------0--0--0-----------------------------
G--4--4--4--4--------4--3--3--3--3-----------3--2--2--2--2-----------2--2--1-----------------------------
D--5--5--5--5-----5--5--4--4--4--4-----4-----4--3--3--3--3-----3--3--3--3--2--0--2-----------------------
A--5--5--5--5--5-----5--4--4--4--4--4-----4--4--3--3--3--3--3--------3--3--2-----------------------------
E--3--3--3--3--------3--2--2--2--2-----------2--1--1--1--1-----------1--1--0-----------------------------
Coasting 4 weeks 1 day ago

Sadly no, the website is very old and the code is out of my control ^^'
Which is why we totally need to have text formatted tabs.

But you can edit your tab post to share links of pdf etc as text too :)

Coasting 4 weeks 1 day ago

Thanks! However, links to PDF sheet music and MP3 recording that I submitted return "Access Denied" error. Any chance you could fix it? :)

Coasting 4 weeks 1 day ago

Took care of it, thank you very much :)

Coasting 4 weeks 1 day ago

Hi. I transcribed the guitar part in text format, but how do I edit my submission?

Coasting 4 weeks 1 day ago

Hello, i do need you guys to put the tab in TEXT format, if you just link a pdf i cannot approve it, ty !

Coasting 4 weeks 1 day ago

<3 Hope you're doing okay. Thanks for sticking with one of my arrangements this long! If you're looking to check out my new arrangements these days, I'm over at www.kabukibear.com

Stay well!

Grandma 5 weeks 3 days ago

very good

Athletic 5 weeks 4 days ago

If you search "to*morning tablature aria the animation" you should be able to find their channel! :)

Their channel also happens to be as well made as these tabs, plus aesthetics.

nice.

Second Season ~Deai~ 5 weeks 5 days ago

Well, if it works, go for it!

Infinity Mijinion Stage (Version 2) 5 weeks 6 days ago

I do not have a guitar. I have just started learning it by ukulele. Can I?

Infinity Mijinion Stage (Version 2) 6 weeks 8 hours ago

Just now learning to play this one after having had it bookmarked for quite a while (literally years :P). I can't believe how groovy it is! Great tab!

Beach of Nothingness 9 weeks 3 days ago

If I could have made this work for a capo on KFC Near Me with vihuela tuning as that would have alleviated this problem quite a bit.

Bayou Boogie 9 weeks 3 days ago

i really like Sigma Fortress 2,
thank you!

The Capcom Selection [Album] 10 weeks 5 days ago

thnks

Hollow Bastion 10 weeks 5 days ago

Great work as always!!

Super Mario Bros. Theme 11 weeks 3 days ago

I put them back up but I've started a patreon and discord server and that's where I'm active these days. You should come hang out with us!

https://www.patreon.com/user?u=6087704

Kabukibear's Way Too Long Arranging Tutorial 11 weeks 6 days ago

Updated the tab link

Besaid Island 11 weeks 6 days ago

It's 2022, and I lost both my grandmothers not to long ago.. and simply playing this song makes my cry!

Grandma 12 weeks 1 day ago

I really enjoyed the drawcia soul remix.

"The Green (Greens) Album" a Kirby Tribute Album! 12 weeks 2 days ago

Hi Kabukibear. Love your work! Most of your arrangements are no longer on gametabs. Is there somewhere we can find them?

Kabukibear's Way Too Long Arranging Tutorial 12 weeks 2 days ago

Nice cover!
The tab for this disappeared a month or two ago.
Does anyone have a copy?

Besaid Island 12 weeks 2 days ago

Playable in standard tuning as well, only two bass notes near the end are affected.

Excellent tab and great recording, thedstring.

On the Beach of Dreams - Another World 12 weeks 3 days ago

my fav song from the game, thank you very much :)

Tranquility 13 weeks 4 days ago

i've been struggling to find any tabs for this game at all, so to not only find this tab but to also love the sound of it is such a pleasant surprise. addictive to play and sounds great on my acoustic. thanks for sharing!

Flying Dutchman's Graveyard 18 weeks 1 day ago

I'm glad you enjoyed it! I will bring more Sonic tabs soon (Lava Reef Act 1 next).

Flying Battery Zone 19 weeks 6 days ago

I've been waiting for this tab. That track is extremely cool.

Flying Battery Zone 19 weeks 6 days ago

Thanks! I thought about including the fast melodies that plays in the beginning of each act. The things is, it would make the tab much harder to play and it kinda ruins the flow too so i've decided not to do it.

Flying Battery Zone 20 weeks 1 day ago

what an awesome arrangement for a hectic tune! great work, really love this

Flying Battery Zone 20 weeks 3 days ago

I think it's supposed to be dgdgad

Rei I 20 weeks 3 days ago

Thanks, actually there is some mistake, and is abit too hard to play.
So I'm planning to retry arrangement, it will be easier one, ...I think.

Sootopolis City 20 weeks 5 days ago

Dude, it's just a pleasure to play this arrangement ! great work !

Sootopolis City 21 weeks 5 days ago

Mario!!!

Overworld Theme 23 weeks 16 hours ago

It's really the sheet music I was looking for. Thanks to you, 스포츠토토

Border Village Dali 24 weeks 5 days ago

I also had this drop off the radar xD good stuff! love to hear it

Galdin Quay 24 weeks 5 days ago

You can find his tabs on his Patreon now :)

Kirby's Pad 25 weeks 3 days ago

are we sure hes just didnt tune up( or is it down i cant be bothered to think) cause my hands feel like theyre tearing when i play this

Miwataseba 25 weeks 6 days ago

yoo, alot of your tabs are missing! i love them so much, had to tell you ;O

Kirby's Pad 25 weeks 6 days ago

Here's a video of me playing this sheet music the day I finished arranging it

https://www.youtube.com/watch?v=6KUfdYzzPl4

Nanairo no Sora wo 26 weeks 1 day ago

.

Lost Before Light 26 weeks 1 day ago

Video of me playing this song

https://www.youtube.com/watch?v=UN_k4KeYOeM

Lightning's Theme 26 weeks 1 day ago

.

I Was Born for This 26 weeks 1 day ago