Recent comments

Comment Posted on Submittedsort icon

Strangely enough it's not actually from Yume Nikki it's Ending 14 from Naruto Shippuden.

Utakata Hanabi 2 days 20 hours ago

very intresting :)

"Treetop Tunes" a DKC Tribute Album 6 days 8 hours ago

I hope you like it, I will soon send more of this game

Enemy Attack 1 week 1 day ago

U r no 1, u r the best, thank u i luv u

Main Theme (nosebloods version) 1 week 3 days ago

Haven't played this game yet, but this tab makes me want to

Utakata Hanabi 1 week 4 days ago

post a link of your upload mister and we'll get to the bottom of this scout's honor

A Song for Time 2 weeks 23 hours ago

Bitch.

A Song for Time 2 weeks 1 day ago

Just a rip of my .gpx i uploaded to ultimate guitar. Thanks for posting some credit due there i guess. Thanks but highlight the author if you didn't tab it yourself

A Song for Time 2 weeks 1 day ago

This one is fun =)

Morning Grace 2 weeks 1 day ago

I love this song! Thank you! :3

Save Theme 2 weeks 3 days ago

khé?

Prelude of Light 2 weeks 4 days ago

thanks =)

"Scarlet Night" a Castlevania (1986-1996) Tribute Album 2 weeks 5 days ago

hey budy THANK YOU SO MUCH for this tab i wasloking for this for long time ago THANK YOU SO MUCH

Grabbag 2 weeks 5 days ago

nice

Behind the Mask 2 weeks 6 days ago

Don't be like this honestly be a bit more mature, it is meant to be read like this if you haven't seen other tabs yet. Get a grip mate and don't be toxic.

Butterfly Kiss (Clinic Theme) 2 weeks 6 days ago

This is super guiding and helpful compared to the super difficult ones on other websites

Main Theme (E3 ver.) 3 weeks 16 hours ago

Really nice and calming.

Pollyanna 3 weeks 5 days ago

Thanks! This is one of my favorite own arrangements and I'm happy someone appreciated it.
I was just trying to make it more comfortable to play, as it was complicated on E standard.

Forbidden Land 3 weeks 6 days ago

This is a good starter guide. One thing I'd like to point out is that timing actually can be as accurately represented in tablature as it is in standard music notation.

Simple Fingerpicking Exercise 4 weeks 5 hours ago

thank you! i just started playing)

How to Read and Write Guitar Tabs 4 weeks 5 hours ago

Hope you'll like it, let me know what your favourite tracks are =)

Gametabs: Official Discord Server 4 weeks 5 hours ago

Hello!

Hail to the Chief! 4 weeks 5 hours ago

interesting information. learned a new method

Stringing your classical guitar. 4 weeks 5 hours ago

not bad!

"Rhythm Raceway" a Mario Kart Tribute Album 4 weeks 5 hours ago

This is very nice. It's sort of hard to grasp the correct fingering, but I'm getting it.

A Cat Relaxing in the Sun 4 weeks 8 hours ago

very nice

Another Medium 4 weeks 8 hours ago

very nice and easy to play, thanks for the tab! falcom stuff is always appreciated

A Moment of Courtesy 4 weeks 8 hours ago

sumptuously. I liked it very much

"World's Requiem" a Final Fantasy VI Tribute Album 4 weeks 8 hours ago

Great job

1st Movement of The Odyssey 4 weeks 8 hours ago

like this

"Scarlet Night" a Castlevania (1986-1996) Tribute Album 4 weeks 8 hours ago

cool!!!

"The Green (Greens) Album" a Kirby Tribute Album! 4 weeks 8 hours ago

never thought i'd see a guitar tab of this song! nice work

"Unknown" Orgel Song 4 weeks 8 hours ago

Really beautiful! However, since this is written upside-down from how I usually read tabs, I switched it around for myself.

:00						:13
A-----------------1--3-0-----------------1--3-0---------------------
E----3-1--------3-1---------3-1--------3-1------3--------1--------1-
C-0------3p2-0----0------0------3p2-0----0------3--0---3-2--0---3-2-
G----------------------------------------------------0--------0-----
 :17
A-----------------1--3-0----------------1--3-0----5-0-----------1-0---------1-0------
E----3-1--------3-1---------3-1-------3-1------3-----------1------1--3p1------1--3p1-
C-0----2-3p2-0----0------0----2-3p2-0---0------3------3------3--3--------3----0------
G-----------------------------------------------------0------0-----------3-----------
 :45
A----------------------3--3--3-6-5-3--3--3p1h3p1---------------
E------1----------1----------1--------4--------------3-1---1-3-
C-3--3-2----0-0-3-2----0--0--0--------0----------3-3-----3-----
G-0------------------------------------------------------------

A-3--3--3-6-5-3--3--3p1h3p1---------------
E-------1--------4--------------3-1---1-3-
C-0--0--0--------0----------3-3-----3-----
G-----------------------------------------
 1:21
A-----------------1--3-0---------------1--3-0----5-0----------1-0---------1-0------
E----3-1--------3-1--------3-1-------3-1------3---------1--3----1--3p1-3----1--3p1-
C-0------3p2-0----0------0-----3p2-0---0------3------3-----3--3--------3--3--------
G----------------------------------------------------0-----------------------------

 1:49
A------------------------------------1-----
E------1----------1--------1----------1----
C-3--3-2----0---3-2--0-0-3-2--0-0-3----3p2-
G-0-----------0----------------------------
Haha to Ko Ranka no Aimo 4 weeks 1 day ago

Thank you for creating this tab. If you one day make a tab for the whole thing I would love to know about it! One of the best songs in Fallout period

Blues For You 4 weeks 2 days ago

Loggin in for the first time in a couple years to say I approve of this tab

Corridors of Time (Washi981 Version) 4 weeks 3 days ago

Sounds amazing and plays really well. Well done! I love the harmonic! Good job!

Dire Dire Docks 4 weeks 4 days ago

r/boneappletea

Bolero of Fire 4 weeks 5 days ago

I saw another Youtuber played the last row, second column as follows:

A|-3--------5--------|
E|-------4--------4--|
C|-------------3-----|
G|----0--------------|

Melody of Lute 6 weeks 3 days ago

Awesome!

Dancing Mad 6 weeks 5 days ago

The game is called Death's Gambit.

Inside the Hub 6 weeks 5 days ago

haven't played too much of Inquisition but this is a great song with an amazing tab

Enchanter 6 weeks 5 days ago

EZ

Susie 7 weeks 14 hours ago

thats great,its a wonderful tab

Show Time! (Mettaton) 7 weeks 2 days ago

Modified to be lower on the frets:

e----------------------------------
B---------------------------------- x2
G------2--2------------------------
D----------------0--0----3--3-----
A----------------------------------
E----------------------------------

e-----------------------------
B-----------------------------
G—3--3-----------------------
D-----------2--2----5--5------
A-----------------------------
E-----------------------------

e----------------------------------
B--2--2----------------5--5--6----
G—------------3--3----------------
D----------------------------------
A----------------------------------
E----------------------------------

Song of Double Time 7 weeks 4 days ago

Nice! Really like the video too!

Lost woods 7 weeks 4 days ago

The .gp5 is pretty accurate so it looks like something went a little screwy with sustained notes on the .txt export. Either way, great song from a great game. More bossa nova pls :p

The End (prague radio) 8 weeks 1 day ago

Amazing!

Tressa the Merchant 8 weeks 5 days ago

Did you catch the 3x next to the first four measures of Guitar 1 and the Bass? Those four measures are played three times before moving on the the next group of measures.

Festival of Stars 8 weeks 6 days ago

heyya Doomofallfires!, I just wanna say thanks for the tabs..now I can daydream staring at the trees moving with the winds while playing my guitar..

play:Thanks a million

Fisherman's Horizon 9 weeks 3 days ago

Is it just me or does parts of this tab not match up with other areas?
some parts are longer and some parts are shorter

Festival of Stars 9 weeks 4 days ago