Ads

Recent comments

Comment Posted on Submittedsort icon

How do boosts work on Cash App when there is internet error? Call customer care service for help.
An internet error can be a problem and you might wonder how do boosts work on Cash App? In that case, you can use the assistance of the help team to get rid of the problem. You can also use the assistance of the help v ids that’ll assist you in getting rid of the problem. https://www.emailsupport-contact.com/blog/how-do-boosts-work-on-cash-app/

Discord Server Migration + Forum issues 3 hours 5 min ago

Question how to change your Verizon Wifi password if there's a blunder on the web? Dial helpline number.

You can disapprove of the web that may compel you to think how to change your Verizon Wifi password. In such a case, you can utilize the vid library that is accessible on Youtube to get the difficulty settled by utilizing the help or the procedures recorded by the specialists. Notwithstanding that, you can likewise explore to the consultancies for additional help. https://www.phonesupportnumbers.net/blog/how-to-change-verizon-wifi-pass...

Discord Server Migration + Forum issues 3 hours 20 min ago

How could Google account recovery show our secret word?
Indeed, you can see your all spared secret word here without confronting any issue. Be that as it may, for this, you need to explore the password.google.com. Once, you are going here, you can see a rundown of accounts with their secret word. Presently, you can pick any of them which you require. Here is an elective alternative to get it, which is Google account recovery page. It is on the Google landing page. https://www.my-accountrecovery.com/google-account-recovery/

Discord Server Migration + Forum issues 3 hours 35 min ago

as epic as it gets

Shion - Past Memory 6 hours 59 min ago

Seems ok to me! like you said, i was able to figure out how to play the tab after listening to the original, and it sounds great.

Still of The Night (Pure Land) 16 hours 20 min ago

We guarantee the originality and here individuality of each project. Even in the shortest possible time, we do not allow ourselves to plagiarize. After writing the material, we test it with special plagiarism and literacy programs.

Forum Issues 2 days 25 min ago

Great post, thank you for sharing with us! happy wheels

Boukoku Kakusei Catharsis 2 days 3 hours ago

Thanks for the tab!!

Autumn 2 days 9 hours ago

Really pretty, thanks!

Poor Faye 2 days 9 hours ago

Really nice, thank you!!

The Baker's Window 2 days 9 hours ago

Just found it 13 years later. Thanks :)

Mukashi no Yuujin ga Kawarazu ni iru Toiu no mo Waruku nai Mono da na 2 days 10 hours ago

Very well done

Yonah 3 days 13 hours ago

your arrangement of this song is the only version ive heard of this song since ive never played the game b4. im interested how a duet would sound even if i cant play it alone.

Star Stealing Girl 4 days 10 hours ago

:0 its been ages since a comment came through. lol I think I might make a duet version. I main solo versions, but I might have more fun with a duet.

Star Stealing Girl 5 days 5 hours ago

YEEEEES, i wait one long year for this moment.

Zora's Domain 5 days 11 hours ago

Thanks for this, this is really good. I've checked out several of your Pokemon tabs and they're excellent (especially Fortree City and Rustboro City,) hope to see more!

Cianwood City 5 days 17 hours ago

I noticed a lot of errors in the formatting of the tab, such as frets and placements. I am fairly new here and I don’t know if I can edit this tab to fix the duplication issue.

Don’t forget 6 days 7 hours ago

haha yea i think ill play a duet too! i definitely have friends who i can play with haha.
jkjk its just after reading this comment im reminded of how nice it is to be able play such a full sounding song on classical guitar alone. and honestly its a big reason why i love it so much.

Star Stealing Girl 1 week 3 hours ago

this is amazing

Comet Observatory 1 week 7 hours ago

Very nice Tone I am also working on a assignment I hope you all like it soon.

Little Date 1 week 23 hours ago

so amazing, one of my favorite songs, thanks :)

Cianwood City 1 week 3 days ago

What do the numbers beside the sheet music notes mean?

Edit: Nevermind I figured it out

Lilium ~Mariko & Kurama Ver.~ 1 week 4 days ago

Thanks

Lilium ~Mariko & Kurama Ver.~ 1 week 4 days ago

Sure thing. If you click the listen link it should take you to a mega.nz page to download the tab

Lilium ~Mariko & Kurama Ver.~ 1 week 5 days ago

in A section after the 10-8-7 on B string it should be (on G) 6-7/4 (slide to 4)

Layer Cake 1 week 6 days ago

Could you provide an external download link for the tabs? Downloads for new tabs are broken atm

Lilium ~Mariko & Kurama Ver.~ 1 week 6 days ago

all in the title

Golem King 1 week 6 days ago

helped me a lot~!

The Legendary Theme 2 weeks 1 day ago

...and thank you very much!

Do you think you can do the rest of it?
You can hear it here:
https://www.youtube.com/watch?v=uuAMSLzCahE&ab_channel=DarkCatCheshire

...much appreciated!!

Reminisce 2 weeks 5 days ago

I made a guitar pro 5 and pdf files for users who prefers Music theory.
I put Courage808 ending so thanks to him.

https://drive.google.com/file/d/1Ym7P29qGUV5_y8Cv8DZ1kmF5emg9ajlc/view?u... ->.gp5
https://drive.google.com/file/d/1EcmN8iMx1DY7vudCNxHCGUWufDcjdgaW/view?u... -> .pdf

Song of Storms 2 weeks 6 days ago

Cool

Boukoku Kakusei Catharsis 2 weeks 6 days ago

These tabs were perfect mate, I uploaded a YouTube cover for this too: https://youtu.be/w-zmhILcY0Y

Somnus 2 weeks 6 days ago

can't view, you did not put the youtube link in the video url box

hot springs 3 weeks 1 day ago

Awesome, thanks

Between Ordeals 3 weeks 2 days ago

e|---------------------------------------------------------------------------|
B|---------------------------------------------------------------------------|
G|------------7-----------------9-7------------------------------------------|
D|----5-7/9-9---7-9~----5-7/9-9-----9~----5-7/9-9-7\5\2~--4-0-2~-------------|
A|-/7----------------/7----------------/7------------------------------------|
E|---------------------------------------------------------------------------|

Steam Gardens 3 weeks 3 days ago

this sounds better tbh

Comet Observatory 4 weeks 9 hours ago

superb tab with a bpm of 60 allowing one to remove the focus of playing and instead reflect upon sins

The Farthest Land 4 weeks 1 day ago

Really nice tab. Works really great with some FX

Main Theme 4 weeks 2 days ago

楽しい。嬉しくなります

Ureshi, Tanoshi 4 weeks 2 days ago

very relaxing to play. the bpm feels just right to get a groove going.

World 2 - Muda 4 weeks 2 days ago

I had a similar idea in my plans! Good implementation!

CALICOMP 1.1 Startup 4 weeks 2 days ago

Why so simple and tasteful! It feels like a good experience!

Menu Select 4 weeks 2 days ago

Well done author!

Main Theme 4 weeks 2 days ago

I like this idea, it feels delicious!

Level Summary 4 weeks 2 days ago

fun to play!

Rosalina Story & Sad Story 4 weeks 2 days ago

Loved how nice it felt to play

Faltering Prayer, Starry Sky 4 weeks 3 days ago

Amazing!

The Spirit Tree 4 weeks 4 days ago

cool tab. really love fe7 so im glad you did this. i'll try to make some fe7 tabs myself.

i noticed that your tab is in a different key, was that just for playability?
i found it easier to keep the key the same as the original.

heres my take on it. the only iffy part are measures 5&6(as well as 13&14) but i think
its overall relatively simple.
adding the harmony bumps up the difficulty but you could always just play the first bit.

standard tuning
capo fret 5

   S S S S S S S S S S S S     S S S S S S S S S S S S     S S S S S S S S S S S S
|--------0------------------|---------------------------|--------0------------------|
|--------------------3------|--------1-----------0------|--------------------3------|
|------2-----2-----2-----2--|------2-----2-----2-----2--|------0-----0-----0-----0--|
|----2-----2-----2-----2----|----2-----2-----2-----2----|----0-----0-----0-----0----|
|--0-----0-----0-----0------|--0-----0-----0-----0------|---------------------------|
|---------------------------|---------------------------|--3-----3-----3-----3------|


   S S S S S S S S S S S S     S S S S S S S S S S S S     S S S S S S S S S S S S
|---------------------------|--------0------------------|---------------------------|
|--------1-----------0------|--------------------3------|--------1-----------0------|
|------0-----0-----0-----0--|---------------------------|---------------------------|
|----0-----0-----0-----0----|----0-4---0-4---0-4---0-4--|----0-4---0-4---0-4---0-4--|
|---------------------------|---------------------------|---------------------------|
|--3-----3-----3-----3------|--2-----2-----2-----2------|--2-----2-----2-----2------|


   S S S S S S S S S S S S     S S S S S S S S S S S S     S S S S S S S S S S S S
|--------0------------------|---------------------------|--------0------------------|
|--------------------3------|--------1-----------0------|--------1-----------3------|
|---------------------------|---------------------------|------2-----2-----2-4---2--|
|------3-----3-----3-----3--|------2-----2-----2-----2--|----2-----2-----2-----2----|
|----3-----3-----3-----3----|----2-----2-----2-----2----|--0-----0-----0-----0------|
|--1-----1-----1-----1------|--0-----0-----0-----0------|---------------------------|


   S S S S S S S S S S S S     S S S S S S S S S S S S     S S S S S S S S S S S S
|---------------------------|--------0------------------|---------------------------|
|--------1-----------0------|--------1-----------3------|--------1-----------0------|
|------2-2---2-----2-0---2--|------0-----0-----0-4---0--|------0-2---0-----0-0---0--|
|----2-----2-----2-----2----|----0-----0-----0-----0----|----0-----0-----0-----0----|
|--0-----0-----0-----0------|---------------------------|---------------------------|
|---------------------------|--3-----3-----3-----3------|--3-----3-----3-----3------|


   S S S S S S S S S S S S     S S S S S S S S S S S S     S S S S S S S S S S S S
|--------0------------------|---------------------------|--------0------------------|
|--------1-----------3------|--------1-----------0------|--------------------3------|
|--------------------4------|--------2-----------0------|--------5-----------4------|
|----0-4---0-4---0-4---0-4--|----0-4---0-4---0-4---0-4--|------3-----3-----3-----3--|
|---------------------------|---------------------------|----3-----3-----3-----3----|
|--2-----2-----2-----2------|--2-----2-----2-----2------|--1-----1-----1-----1------|
                                                                            bar w/ middle finger

   S S S S S S S S S S S S
|---------------------------|
|--------1-----------0------|
|--------2-----------0------|
|------2-----2-----2-----2--|
|----2-----2-----2-----2----|
|--0-----0-----0-----0------|

A Knight's Oath 4 weeks 5 days ago

Tab files:
https://drive.google.com/drive/folders/1oXB_3KwK3N7iJ09yXSxzQqVQ5Skw41CO?usp=sharing

Audio file:
https://drive.google.com/file/d/1mOOArTn-ssfkGZx-l0lp79cqV9uS68Sy/view?usp=sharing

Megamix Mania 5 weeks 13 hours ago

lol

Megalovania 5 weeks 15 hours ago