Ads

Recent comments

Comment Posted on Submittedsort icon

great tab ty

Battle Theme 5 hours 33 min ago

Great version for beginners

Megalovania 1 day 16 hours ago

Thank you. Great light music and easy to perform

Great Fairy Fountain 1 day 16 hours ago

Wow

GTYNP: Seiken Densetsu 3 - Innocent Sea 5 days 14 hours ago

Nice smooth playing!

The Chapter 1 was released in 2018, the same year when i went to college. This song had been playing in my ears during my returns to hometown since i first listened it.

A Town Called Hometown 6 days 3 hours ago

Perfectly. I am glad that the composition is not difficult to study.

Song of Storms 1 week 8 hours ago

This is the yacht information I was looking for, thank you온라인카지노

Border Village Dali 1 week 5 days ago

It's really the sheet music I was looking for. Thanks to you, I'm looking for good information스포츠토토

Border Village Dali 1 week 5 days ago

You're the best!!!

E1M8: Phobos Anomaly 2 weeks 1 day ago

LOL I'm currently studying at the university and we have a band, we still like to play music from different games)))

College Bands and Video Game Music 2 weeks 2 days ago

When I was at the university, we had our own band, we loved to play various melodies from games. They played different melodies from Mario, Mortal Kombat, GTA.

College Bands and Video Game Music 2 weeks 2 days ago

Sure, https://drive.google.com/file/d/1th5o3YJHu42Tf5NIWXhyarPpTSEx_yK5/view?u...

Megalith: Agnus Dei (Rex Tremendae) 3 weeks 2 days ago

Very good tab! Easy to read and flow with the song, bringing back many nostalgic memories!

Ahead On Our Way 3 weeks 2 days ago

Sound very good!

Gloomy Manor 3 weeks 5 days ago

Very nice sir!

Easy to play and captured the original perfectly.

Ahead On Our Way 3 weeks 5 days ago

Dating is always great. The main thing is to find someone with common interests. I like experiments in intimate life and it is important for me that my partner loves it too. I recently discovered kinkazoid and I was pleasantly surprised by the abundance of toys for adults. Thanks to this, can significantly improve personal life and make it more vibrant.

Dating Start! 3 weeks 6 days ago

Majestic tab

Calm 1 4 weeks 23 hours ago

Intro should be

e|--------------------------------------------------------------7----10~--|
B|--------------------------------------10----8------8-----8-------------|
G|----9--7---------------7---10--------------10-----7----------------|
D|-7-------10--9------9----------10----------------------------------|
A|----------------10-------------------------------------------------|
E|-------------------------------------------------------------------|

Final Chapter 4 weeks 3 days ago

Amazing tab! I'd love to see more of your tab arrangements of the other soundtracks from the Golden Apple Archipelago <3

Sunshine Beach 4 weeks 4 days ago

Updated!

Prelude 4 weeks 4 days ago

Hello. I have a few questions. 1) How can I contact the administrators? (only via the forum?) 2) I lost access to my old Sad_Pleasure account and access to the mail to which the account was linked. Is there any way to get access to it by changing the mail. Or delete it and re-register it. If this is still not possible, then you can put a link for HIGAN, as i did in the new tab THIN PURPLE to the guitar pro tab at the top of the tablature description, I made a dropbox link, wrote it down in the comments. https://www.dropbox.com/sh/zxs0hqefmq963ma/AACFGDHDu5B9QNm6yEV1Rq3aa?dl=0 .
3) I think if I can't get access to the old account, then it's better to place new tablature on this account, so that it would be easier to edit in case of errors. Thanks!

Thin Purple 4 weeks 4 days ago

Thanks again scarecrowlol. Here is the link

https://www.dropbox.com/sh/yzngik0mcnmay2i/AAB2AxRFQboUNqCKkGrbEU0Ta?dl=0

Prelude 4 weeks 5 days ago

No worries! I've changed the necessary bars. As for the GP file, do you have an edit button at the top of your tab page? if not then you'll have to provide me with a download link and i can update

Prelude 4 weeks 5 days ago

Thanks so much scarecrowlol. I also picked up a couple errors and would like to resubmit but not sure what the process is. Here are the main corrections:

Bars 3, 4, 7 and 8 should be (making use of open note rather than fretted):
--------------------------2-------------------------|
--------------------0h-4-----4h-0-------------------|
--------------0h-2-----------------2h-0-------------|
----------------------------------------------------|
--------0h-4-----------------------------4h-0-------|
--4h-6-----------------------------------------6----|

Bar 18 should be (removed extra note in melody):
--4-----------------------7-------------------------|
-----------4-----------4-----------4-----------4----|
--------5-----------5-----------5-----------5-------|
-----0-----------0-----------0-----------0----------|
--0-----------0-----------0-----------0-------------|
----------------------------------------------------|

I can resubmit the GP5 just not sure how.

Prelude 5 weeks 2 days ago

I've added a small note at the top of the tab that its in capo 5 :)

Prelude 5 weeks 3 days ago

Hi this is the first tab I have uploaded here. Not sure what happened to the tuning information but just a quick note that it is CGDEGD with capo on 5th.

You can watch the arrangement being played here: https://www.youtube.com/watch?v=Wn4FyIysiLA

Prelude 5 weeks 3 days ago

Amazing!

Arthas, My Son - Invincible 5 weeks 3 days ago

What a beautiful piece, great job my friend! So many thanks!

Not so far away 5 weeks 3 days ago

Thanks for the answer. I have a few questions. 1) How can I contact the administrators? (only via the forum?) 2) I lost access to my old Sad_Pleasure account and access to the mail to which the account was linked. Is there any way to get access to it by changing the mail. Or delete it and re-register it. If this is still not possible, then you can put a link to the guitar pro tab at the top of the tablature description, I made a dropbox link, wrote it down in the comments. https://www.dropbox.com/sh/zxs0hqefmq963ma/AACFGDHDu5B9QNm6yEV1Rq3aa?dl=0 .
3) I think if I can't get access to the old account, then it's better to place new tablature on this account, so that it would be easier to edit in case of errors.

Higan 5 weeks 4 days ago

Link on Guitar pro tab, midi, pdf file or all in zip file https://www.dropbox.com/sh/zxs0hqefmq963ma/AACFGDHDu5B9QNm6yEV1Rq3aa?dl=0

Higan 5 weeks 4 days ago

Nope, it's a website problem we can't host files anymore, your best bet is to upload it on a website (google drive, mediafire, dropbox...) and put the download link at the top of the tab description

Higan 5 weeks 4 days ago

Gtp file in zip file dont download. Am I doing something wrong?

Higan 5 weeks 4 days ago

It is very helpful for newcomers. It really makes me happy. Thanks slope 2

Boukoku Kakusei Catharsis 7 weeks 22 hours ago

Enjoyable!

I've noticed a leitmotif of the Fields of Hopes and Dreams is in the 6th measure.

Thrash Machine 10 weeks 2 days ago

Ohhh I'll have to give it a listen happy to see you are still going strong with Pixel Mixers Hashel hope you are doing well sir!

Tranquility: A VGM Tribute album to the benefit of SaveTheChildren 11 weeks 2 days ago

Looks interesting! I didn't expect an Ace Combat cover. Can you also add en external link to the Guitar Pro file? The "download" button doesn't work.

Megalith: Agnus Dei (Rex Tremendae) 12 weeks 8 hours ago

Hey,

Would you have the Zelda's Theme (Milk Bar version) tab?

Cheers!

Lorule Castle (Milk Bar) 12 weeks 17 hours ago
"Slider" - Super Mario 64
Composers : Koji Kondo
Arrangement : judgexii
Tuning : Standard EADGBe
BPM : 175 (4/4 time)

   Intro
   h        h                    e  e  e  e  e  e  e  e
e-----------------------------|-----------------------------||
B-/5-------/5-----------------|-/5--5--2--2-----------------||
G-/2-------/2-----------------|-/2--2--2--2--4--4--3--3-----||
D-----------------------------|-----------------------------||
A--0--------0-----------------|--0-----0-----0-----0--------||
E-----------------------------|-----------------------------||
   
   Part 1
   q    q    q    q              e  e  e  e  q    e  e         q    q    q    q              e  e  e  e  q    e  e                                      
e-----------------------------|--------------2----0---------|------------0----------------|-----------------------------|
B-----------------------------|--3--3--2--3--1----1--3------|--0---------0----3-----------|--0--0-----0--3----2--0------|
G--2--------/4----2-----------|--2--------------------------|--0--------------0-----------|--0-----3-----1----1---------|
D--0----0----0----0-----------|--0-----0-----0----0---------|-----------------------------|-----------------------------|
A-----------------------------|-----------------------------|-----------------------------|--------------2----2---------|
E-----------------------------|-----------------------------|--3----3----3----3-----------|--3-----3--------------------|

   q    e  e  q    q             q    e e  e  e  q             q    e e  e  e  q             q    q    q    q
e------------------5----------|---------------5-------------|---------------5-------------|--0--------------------------|
B------------------3----------|---------------4-------------|---------------5-------------|--2--------------------------|
G--2-------2------------------|-------2p1--2----------------|-------2\1--2----------------|--2----2----1----0-----------|
D--0----0-----0----0----------|--1----1----1-----1----------|--2----2----2------2---------|--2--------------------------|
A-----------------------------|-----------------------------|-----------------------------|-----------------------------|
E-----------------------------|-----------------------------|-----------------------------|-----------------------------|

   q    q    q    q              q    e e  q    e e            q    q    q    q              q    e e  q    e e                                    
e-----------------------------|-----------------------------|------------0----------------|-----------------------------|
B--3--------------------------|--1---------1----------------|--0---------0----3-----------|--0----0h2--3----2p0---------|
G------------4----2-----------|--2--------------------------|--0--------------0-----------|--1----1----1----1-----------|
D--4---------0----0-----------|--0----0h2--4----2p0---------|-----------------------------|-----------------------------|
A--5----5---------------------|-----------------------------|-----------------------------|--2----2----2----2-----------|
E-----------------------------|-----------------------------|--3----3----3----3-----------|-----------------------------|

							       Part 1 Ending 1
   e  e  q    q    q             q    q    q    q              q    q    q    q              q    q    q    q
e-----------------------------|--5--------------0-----------|-----------------------------|-----------------------------||
B-----------------------------|--2--------------2-----------|--3----3----3----3-----------|--3----3----3----3-----------||
G-----2-------2---------------|------------2----------------|--2----2----2----2-----------|--2----2----2----2-----------||
D-----2-------2---------------|-----------------------------|--0----0---------------------|-----------------------------||
A--0-----0----0----0----------|--0----2----3----4-----------|------------3----3-----------|--2----2----1----1-----------||
E-----------------------------|-----------------------------|-----------------------------|-----------------------------|| Back to Part 1


   Part 1 Ending 2
   q    q    q    q              e  e  e  e  e  e  e  e        
e-----------------------------|--------------0--2--3--5-----||
B--3--------------------------|-----3--2--3--1--1-----------||
G--2--------------------------|-----------------------------||
D--0----0----0----0-----------|--0-----0-----0-----0--------||
A-----------------------------|-----------------------------||
E-----------------------------|-----------------------------|| To Part 2

   Part 2
   q    q    q    q              q    q    q    q              q    q    q    q              q    q    e  e  e  e
e-----------------------------|-----------------------------|-----------------------------|-----------------------------|
B--0--------------------------|------------0----------------|--3---------3----------------|--3------------------2-------|
G--0---------3----------------|--2--------------------------|--0---------2----------------|---------------2--4----------|
D------------0----------------|--0----0----0----4-----------|-----------------------------|--4---------------0----------|
A-----------------------------|-----------------5-----------|--2----2----1----1-----------|--5----5----5----------------|
E--3----3----3----3-----------|-----------------------------|-----------------------------|-----------------------------|

   q    q    e  e  e  e          q    q    q    q              q    q    q    q              q    q    q    q 
e---------------------0-------|--2--------------2-----------|--0--------------------------|-----------------------------||
B--3------------2--3----------|--3--------------3-----------|--0---------3----2-----------|--3--------------------------||
G--0------------1--1----------|------------2----------------|------------2----0-----------|--2--------------------------||
D-----------------------------|------------0----0-----------|-----------------------------|--0----0----0----0-----------||
A------------2-----2----------|--0----0---------------------|------------0----0-----------|-----------------------------||
E--3----3---------------------|-----------------------------|--3----3---------------------|-----------------------------||


   Part 3
   q    q    e  e  q             e  e  q    e  e  q            q    q    e  e  q             e  e  q    e  e  q
e-----------------------------|-----------------------------|-----------------------------|-----------------------------|
B-------3----3--3-------------|-----3--3----3--3------------|-------3----3--3-------------|-----3--3----3--3------------|
G-------2----2--2-------------|-----2--2----2--2------------|-------4----4--4-------------|-----4--4----4--4------------|
D--0----0----0-----0----------|--0-----0----0-----0---------|-------3----3--3-------------|-----3--3----3--3------------|
A-----------------------------|-----------------------------|--5----5----5-----5----------|--5-----5----5-----5---------|
E-----------------------------|-----------------------------|-----------------------------|-----------------------------|
 
   q    q    q    q              q    q    q    q              q    q    q    q              q    e  e  q    q
e-/5--------/5----------------|-/5----2---------------------|-----------------------------|-----------------------------|
B-/3--------/3----------------|-/3----3----5----4-----------|-/3--------/3----------------|-/3-------2-/3----5----------|
G-----------------------------|-----------------------------|-/4--------/4----------------|-/4-------3-/4----4----------|
D--0----0----0----0-----------|--0----0----0----0-----------|-----------------------------|-----------------------------|
A-----------------------------|-----------------------------|-----------------------------|-----------------------------|
E-----------------------------|-----------------------------|--3----3----3----3-----------|--3----3-----3----3----------|

   q    e  e  q    q             q    q    s s s s e  e        e  s s e  s s s s s s s s s s    s s s s s s s s s s s s s s s s
e-------------2----5----------|--4----5----4h5h2------------|--------------0-2\1/2h3/5p4p3p0-|-------h5-------5-----------------||
B--3----3--3--3----3----------|--3----3----------3p2--------|--0----2h3----------------------|--3p2h3---2\1/2---2\1p0-----------||
G--2----2--2--2----2----------|--2----2---------------2-----|--0------0------0-------0-------|------------------------3\2p1p0---||
D--0----0-----0----0----------|--0----0----0-------0--------|--------------------------------|-------------------------------h2-||
A-----------------------------|-----------------------------|--------------------------------|--0-------0-------0-------0-------||
E-----------------------------|-----------------------------|--------------------------------|----------------------------------|| Back to Part 1


Note Legend
-----------
w - whole
h - half
q - quarter
e - eighth
. - dotted

Tab Legend
-----------
() - continue holding note
h - hammer on
p - pull off
/ - slide up
\ - slide down
<> - natural harmonic
^ - brush up
Slider 12 weeks 2 days ago

It would be nice if there are some time notes.

Rude Buster 12 weeks 4 days ago

olenellus,

Ясно, я подозревал, что тут - ручная корректировка. Расписано очень подробно, за это моё уважение

Everlasting Summer 13 weeks 4 hours ago

К сожалению, вручную в текстовом редакторе с поблочным копированием и вставкой. Так как при этом нет возможности прослушать набранный материал, высока вероятность опечаток, что повсеместно и наблюдается в моих табулатурах. Основным форматом я считал всё же не табулатуру, а нотный текст в приложении. Его набирал в LilyPond.

Кстати, если интересует сама пьеса, советую попробовать другой вариант на этом же сайте. Тот вариант проще играть, а соответственно, он будет увереннее звучать. К тому же он немного ближе к оригиналу по нотам.

Everlasting Summer 13 weeks 8 hours ago

На какой программе писалась таба? Спрашиваю, потому что уж очень интересный формат ASCII файла.

Everlasting Summer 13 weeks 1 day ago

Thanks! I understand now, lol. I don't have that program :C

Anyhow, thanks for the reply! and sorry for late reply!

Its nice to have some fun doing what you do :D

Thanks again!

Turtle woods 13 weeks 3 days ago

It's been a while since a posting it, BUT this is the one of most wonderful and adverb tabulatures I've ever met on the Gametabs.

Journey (Dream of Flight) 13 weeks 5 days ago

i missed this comment. i might upload this one actually, its really short and isn't very difficult

A Knight's Oath 13 weeks 5 days ago

Thanks for your appreciation and yes indeed ... "having fun" remains the goal of the tablature (despite the title of this song ^^ )

Rosalina Story & Sad Story 14 weeks 52 min ago

Thanks bro ! Your comments are not bad either ^^

Chocobo-Chocobo 14 weeks 1 hour ago

Hi & Thanks you for your nice comment.
Also thanx to Nate Brooks to shows us how good this tune can sound on guitar, a very nice perf. Bravo \^.^/

Beach of Nothingness 14 weeks 1 hour ago

Thank you!
I just listen to the notes one by one and transcribe them (because I don't have a sense of pitch), then choose the sounds giving priority to the fingering.

Hip Shop 14 weeks 2 days ago

I'm not a big fan of Naruto but my friends will love it. And thanks for the tips in the comments, the sound of this music will become even better

Sadness and Sorrow 14 weeks 2 days ago