Login or Register to remove this ad.

Recent comments

Comment Posted on Submittedsort icon

Green's theme ovo

"Catch This!" a Pokémon R/B/Y 20th Birthday Tribute Album 14 hours 33 min ago

What does it have to do with the album?

"Catch This!" a Pokémon R/B/Y 20th Birthday Tribute Album 17 hours 32 min ago

Wish I had made this sooner: https://app.box.com/s/kfyc9nqs82pal4d4zhfcn5jb06xq7k8t

Swiggity swag.

"Catch This!" a Pokémon R/B/Y 20th Birthday Tribute Album 21 hours 50 min ago

Hey man it's been a while since i heard a cover from you, this is absolutely lovely !

Ancient Stones 1 day 1 hour ago

Sorry a bit late, but read this couple of days ago and decided to try it.

Guitarpro: http://www.mediafire.com/file/67ysigagr926nad/Our+Album+-+Kana+Imouto+OS...

PDF: http://www.mediafire.com/file/7uwzqsqp6aeb895/Our+Album+-+Kana+Imouto+OS...

Shameless advertisement, but you can also find them on youtube.

Our Album 6 days 5 hours ago

Gostei bastante ;)

HXH is my favorite anime! Well done! Continue contribuindo ;)

Departure! Opening 6 days 15 hours ago

EPIC

Chikyuugi 1 week 2 days ago
 /(^ᆺ^)\ 

~pyon~ ~pyon~

Daydream Café ~solo piano ver.~ 1 week 2 days ago

Hahaha! A little joke of mine because that part would always stuff me up XD
Those damned quick notes

Daydream Café ~solo piano ver.~ 1 week 2 days ago

Usagi~ usagi~

Daydream Café ~solo piano ver.~ 1 week 2 days ago

I was taken completely by surprise when I saw (╯°益°)╯彡┻━┻ haha! Literally laughed out loud and scared my cat!

Daydream Café ~solo piano ver.~ 1 week 2 days ago

All your Ristorante Paradiso tabs are in my favorites, they're just amazing.

Suteki na Kajitsu 1 week 3 days ago

Thank you Thedstring.What do you think of the other tabs and video i published.

Julia 1 week 3 days ago

Pretty freakin amazing

The Sight of Spira 1 week 3 days ago

I didn't notice that there was a video haha! Sounds great =)

Julia 1 week 3 days ago

EDIT
Played this tab so much that now I like even the bars I didnt like at all lol
Wonderful job

Beneath All the Stars In the Sky (WWRobson Version) 1 week 4 days ago

Not perfect but dang close good sir! This song still kicks my butt whenever I try and play it. Hah
Easily one of the best songs from FFX or any FF really. lol

The Sight of Spira 1 week 4 days ago

If you listen closely to the original Theme of Laura then it is in fact 4 - 3 - 2 instead of 5 - 4 - 3

Theme of Laura 1 week 5 days ago

Yeah, it's one of the many limitations of TuxGuitar. It doesn't export very good text files :-( It ruins all the tied notes (shows a number instead of L).

Better is to export to GP5, load it up in Guitar Pro 5, and export in that. (Not GP6, since GP6 text export is atrocious.)

Julia 1 week 5 days ago

In fact if you go to see the execution of the piece you'll see that duplicate sounds are linked but in tablature is not, and I do not know why.
If you are downloading you will see that the notes are linked.

Julia 1 week 5 days ago

This was seriously awesome

Reunion 1 week 6 days ago

I don't know if it was meant to be this way or not, but it sounds a lot better to me when any duplicate notes are treated as sustains, like if there were ties between them.

Something like this maybe?

E|---------------------|---------0-------2----5----|-2-------------------------|-0---2------------------------|
B|---------------------|-3-------2-------3----7----|-3-----------2--------3----|-0-------3------------0---3---|
G|----------------2----|----------------------6----|---------4-----------------|---------2--------------------|
D|---------------------|-------------0-------------|-----4---------------------|-----0-------5----------------|
A|---------------------|-----0---------------------|-2-------------------------|------------------------------|
D|---------------------|-0-------------------------|---------------------------|-5----------------------------|


E|-0-------------------------|---------0-------2----5----|-5------------------------7---|
B|-3-----------2-------------|-3-------2-------3---------|--------------------------8---|
G|---------2------------2----|---------------------------|-6------------------------7---|
D|-----2---------------------|-------------0-------------|---------4---7----------------|
A|-0-------------------------|-----0---------------------|-----4------------------------|
D|---------------------------|-0-------------------------|-4----------------------------|


E|-9---10--7-----------5---7---5---|---------2---0--------5----|-----------9----7----|
B|---------------------------------|-3-------3---2-------------|-3-----7-------------|
G|-------------0-------------------|-4-----------2-------------|-------7-------------|
D|-----0---------------------------|-----2---------------------|-0-------------------|
A|---------------------------------|-0-------------------------|-2-------------------|
D|-5-------------------------------|---------------------------|---------------------|


E|-7-------5---------------2---5---|-7-----7---5---------|-3---0---2-------------------2---|
B|-------------5-------3---2-------|-7--------------8----|-3-------3-----------------------|
G|-----6-------6-------4---2-------|-------0-------------|-2-------2-----------------------|
D|-4-------------------------------|-------7-------------|-----------------0---2---0-------|
A|---------------------------------|---------------------|-------------0---------------4---|
D|---------------------------------|-5-------------------|-0-------------------------------|


E|-2-------0---2---3----2---0---|-0----------------------------|-------------10-------0---2---5---|
B|-3----------------------------|-0-------3----------------3---|-3-----------8--------------------|
G|-----0------------------------|-------------4--------4-------|-3-------0---7--------------------|
D|------------------------------|-----4------------------------|-5---0----------------------------|
A|-3-----------3----------------|-2----------------------------|----------------------------------|
D|------------------------------|------------------------------|----------------------------------|


E|-0-----------5--------7---9---|-10----------5---------|-7-----------2----------------5---|
B|-3----------------------------|-----------------------|-7-----------2------------7-------|
G|-2-------2---6--------7---9---|-11----------6---------|-7-----------2--------7-----------|
D|-----2------------------------|---------0-------------|---------0------------------------|
A|-0-----------0----------------|-----0-----------------|-----0----------------------------|
D|------------------------------|-0---------------------|-0--------------------------------|


E|-9-----7---7-----|-7-----5---------|-5---3---10----3---------|-2-----------2-------0-----------|
B|-7---------------|-5---------------|-------------------3--5--|-3-------3---------------3---2---|
G|-7---------------|-6---------------|-2---0---7---------------|-----2---------------------------|
D|-0---------------|-----------------|-------------------------|---------------------------------|
A|-----------------|-0---------------|-0-----------------------|-0---------------0---------------|
D|-----------------|-----------------|-------------------------|---------------------------------|


E|-0-------------------------------|---------------------0---2---5---|-10--12--14---------|
B|-0-------0-----------3-----------|-3---------------3---------------|--------------------|
G|-------------2-----------0---2---|-------------2-------------------|--------------------|
D|-----2---------------------------|-4-------0-----------------------|--------------------|
A|---------------------------------|-----0---------------------------|--------------------|
D|-5-----------4-----------2-------|-0-------------------------------|--------------------|
Julia 1 week 6 days ago

Very great job at keeping it nice and simple!

Aurora's Theme 1 week 6 days ago

Thanks for the review! I still trying to make a better mix :p

Stone Tower 1 week 6 days ago

You need to put in a YouTube URL to get the video to show up.

julia 1 week 6 days ago

Awesome!

Cruel Angel's Thesis 2 weeks 20 hours ago
rev2

                                                           
     Q            E  E     E  E  E  E  E  E  E  E     Q    E  E   Q    E  E   
E||---------------------|--------------------------|-------------------------|
B||---------------------|-----4--2--------0--------|-------------------------|
G||---------------------|--1-----------1-----3-----|----------3s--4----------|
D||------------------4--|-----------4-----------4--|-------6-----------1--4--|
A||---------------------|-----2--------------------|--6----------------------|
E||---------------------|--0-----------2-----------|--4----------------------|
                                                      3
                                                      2

  E  E  E  E  E  E  E  E     E  E  E  E   Q    E  E     E  E  E  E  E.   T  T  E  E   
-----------------------2--|-----------------------2--|--4--------7--6h---7p-6p-4-----|
-----4--2-----------0-----|--4--------2s--4----4-----|--------0-------------------7--|
--1-----------1--3--1-----|--------4-----------------|--------------6----------------|
-----------4--------------|-----4--------------------|-----6--------4----------------|
-----2--------------------|--2-----------------------|-------------------------------|
--0-----------2-----------|--------------------------|--0----------------------------|


  E  E  E  E   Q    E  E     E  E  E  E  E  E  E  E     E  E  E  E  Q    S S S S  
--------------------------|--------0-----------------|-------------------------2-|
--4--------------------4--|-----------0-----0--------|-----------4---------------|
-----------3s--4----------|--6-----------3-----3-----|--------6-----5----1-3-4---|
--------6-----------6-----|-----6--------1--------4--|--6-----------6------------|
-----6--------------------|--4-----------------------|-----6--------6------------|
--4-----------------------|--------------------------|--4-----------4------------|
  3  3  4  1        4  1     4  3
  2                          2

  Q    Q     Q.      E     E  E  E  E  Q    S S S S    S S S S E  E  Q    Q     
------------------------|-------------------------2-|----------6--7--6---------|
--4----2----------------|---------------------------|--4-------------7----7----|
--1----3-----1----------|--1----------------1-3-4---|--------4------------8----|
------------(2)------4--|-----4--1-----1------------|------6-------------------|
--2----1-----2----------|--------2--4--2------------|----6---------------------|
------------------------|--2------------------------|--4-----------------------|


  S S  E  S  S  S S  S  S  S S  Q       H        Q    Q     
------11--9--------------------------|-----------6---------|
--9----9----------9-11-------9-11----|----------------7----|
-----(-8)------11---------11---------|---------------------|
----9-------11---------11------------|---------------------|
----------9--------------------------|---------------------|
--0----------------------------------|---------------------|


  E   E  E   E  E   E   E   E      H.            Q       S S  E  E   E  S  S  E   E   E   
-----11--9---------------------|----------------------|------11--9-------------------14--|
--9-------------9--12--11------|----------------------|--9----9---------9----11--12------|
------------11-------------11--|---8------------11----|-------9-----11-------11----------|
-------------------------------|---9------------------|----9--------------11-------------|
--7-------------9--------------|--11-------------9----|-----------------9----------------|
-------------------------------|----------------------|--0-------------------------------|


   Q    E  E  E  E  E  E     E  E   Q    E   E   E   E     E  E  E  E  Q    E  E   
--11----6--7--6-----------|--------11----9--11----------|-------------------------|
-----------------9--7-----|--9------9-----------11------|--9-----9--7-------------|
--11-------------------8--|---------9---------------11--|-----8--------8----8--6--|
---9----------6-----------|-----9---------------11------|--6--------8----------4--|
--------------------------|--------------9--------------|-------------------------|
--------------------------|--0--------------------------|--------------7----------|


  E  E  E  E  Q    E  E      E  E  E  E   Q    Q        W                   
--------------------------|-----------6--11---------|---4-----------------||
-----------0--------------|--------9-----------7----|---4-----------------||
--1-----1-----3-----------|-----8-------------------|---4-----------------||
--------4-----1-------6h--|--8----------------------|--(6)----------------||
-----2-------------6------|-------------------------|--(6)----------------||
--0-----------------------|-------------------------|---4-----------------|| fine...
Path of Redemption 2 weeks 1 day ago

All of Shigeharu's solo versions are amazing, great tabbing

Ikoku no Choro ~guitar ver.~ 2 weeks 1 day ago

Aewsome <3

Route 31 2 weeks 1 day ago

https://www.gametabs.net/forum/topic/85479

Heartache 2 weeks 2 days ago

I started to tab for acoustic guitar but not sure how to do it for mandolin :(

The Wolven Storm 2 weeks 2 days ago

tried doing it by ear on a whim, not sure if its accurate:
|--------------12--9/10\9--------------12--------------------10-9------------------<7>--|
|---9/10--------------------12--10----10-----------------10-------10-------------<7>--|
|---9------9------------------------------9-----------------9--------------9-7---------------|
|--------------------------------------0--------------6/7-----------------------------9--------|
|---9-------------------------------------------------------------------------------7-----------|
|-------------------------------------------------------------------------------------------------|

伊藤 祥平 (Shohei Itou) - Dream of Life 2 weeks 2 days ago

FREEZE !

! 2 weeks 3 days ago

lol

! 2 weeks 3 days ago

Excellent work with the arrangement and your playing was spot on, the lighting was also a nice touch. If I was to critique anything it would be your mix needed a bit more work.

It sounds like a lot of the low end was cut and some instruments got hard to hear after 1:35, but minor nit picking aside this was still a great cover.

Cheers sir

Stone Tower 2 weeks 4 days ago

One of my favorite childhood memories. The tones are on point and it sounds great. Thanks for adding this. It would be great to have some chords for the background :)

Through the Sea of Time 2 weeks 4 days ago

Very cool to mix up the chords with the melody, thanks for including the chord progression!

Main Menu 2 weeks 5 days ago

A solid entry sir, you sound a bit out of tune but since this is a one-take can't be
to picky. :)

Windmill Hut 3 weeks 2 days ago

( ͡° ͜ʖ ͡°) I loved it. #Undertale

Dogsong 3 weeks 3 days ago

Very beautiful piece... the ending gets me everytime, those last 3 chords... <3

Friendship 3 weeks 3 days ago

It's a typo, I'll fix it :)

Those Who Bear the Name 3 weeks 4 days ago

I'm just taking a guess here but I'm pretty sure that "EABDGe" isn't standard tuning.

Those Who Bear the Name 3 weeks 4 days ago

Thank you kindly :)

Rufus' Welcoming Ceremony 3 weeks 6 days ago

I can't help myself from smiling and crying whenever I play this song. I know it's a bit ironic but that's what happens. Thanks for this amazing tab that actually made me cry.

Smiles and Tears 3 weeks 6 days ago

I actually did try to tab this a few months ago as a fingerstyle tab, however due to the complexity of the song I couldnt finish it. I also had trouble with the variations of the theme.

If you want i could share it

Stormwind theme 3 weeks 6 days ago

Indeed warcraft series has many a good tune, can't say I'm familiar with any pre-warcraft II though. Was late jumping on the board for that. :(

Human Theme 3 weeks 6 days ago

Excellent work sir, a few notes can be played different but 99% accurate so full marks. :)

Rufus' Welcoming Ceremony 3 weeks 6 days ago

Excellent work sir only minor mistakes and your pace was spot on,
pretty much no criticism from me.

Maybe try playing a bit softer? Whatever your recording with seems to have decent recording quality, so you shouldn't need to play so hard.

AT BOTTOM OF NIGHT 3 weeks 6 days ago

You started really strong but missed some note and lost your pace for a bit, still a solid entry on the whole.

Keep up the good work sir.

VENTU'S THEME 3 weeks 6 days ago

Nice! Did you arrange it yourself?

ROSE AND GHOST 4 weeks 6 hours ago

Login or Register to remove this ad.