Login or Register to remove this ad.

Recent comments

Comment Posted on Submittedsort icon

Oh I had no idea you could play keyboard that was a surprise, EDM isn't my think but solid production quality and playing as always sir.

You Can Hear the Cry of the Planet 59 min 12 sec ago

Loved the dynamics of your playing and how you arranged the song, if I had any criticism it was that the main melody was a too quite near the start.

Other than that spectacular job sir.

Lifestream 1 hour 2 min ago

bad ass

Lifestream 7 hours 20 min ago

Glad you like it! The piano arrangement that it's based on really brings out the beauty of the composition that I think is easy to overlook in the original.

Here is a PDF of the lead guitar tab:
https://www.gametabs.net/files/user/K0HIJIN/aufsteigende-flugel-lead-guitar.pdf

Aufsteigende Flügel 7 hours 23 min ago

Thanks, changed it

Boss Battle Theme 10 hours 13 min ago

It says standard tuning, but it's dropped D

Boss Battle Theme 17 hours 15 min ago

Thanks dude!

Esperanto 2 days 7 hours ago

Wow dude it's been song long :D

How're you doing?

We created a discord server for gametabs, come chill with us: https://discord.gg/5n7qEwu

"Hylian Downfall" a Legend of Zelda tribute album 2 days 7 hours ago

Nice one, I love the Linkś Awakening part :)

"Hylian Downfall" a Legend of Zelda tribute album 2 days 9 hours ago

Really fun to play.

Star Light Zone 2 days 10 hours ago

A LOT of work, but the result worth it :D

Hope you'll like it!

Hylian Downfall [Tribute Album OUT NOW] 2 days 18 hours ago

Wow, putting this together must have been quite a feat! I'll definitely check it out, good work!

Hylian Downfall [Tribute Album OUT NOW] 2 days 23 hours ago

Thanks you!

House Theme 3 days 10 hours ago

Ooh, that's nice. :)

House Theme 3 days 21 hours ago

I like playing the final chord as

--0--
--0--
--8--
--6--
--7--
-----
Day by Day 4 days 50 min ago

This is really cool, I think I would like the lead! I'll pm you

Aufsteigende Flügel 4 days 1 hour ago

Pretty good, but I really think this song could benefit from a capo fret-1

Town 4 days 2 hours ago

Thanks dude! I'm practicing more so that I'll be able to play cleaner!

House Theme 4 days 5 hours ago

Not familiar with this entry or the song itself but I enjoyed the light distortion you had and it was pretty clean over. Maybe a bit simple but beyond that solid work sir.

House Theme 4 days 6 hours ago

Awesome! Have wanted a tab of this for years. Great job.

Ashley's Theme 5 days 4 hours ago

The "METAL" in flames always makes me laugh XD

Strike the Earth! (Plains of Passage) 5 days 8 hours ago

Love your style! \m/

Those who fight 5 days 8 hours ago

Nice job! Clean mix.

Multiman Melee 2+Menu 5 days 8 hours ago

Groovy one

Esto Gaza (Sacred Ground) 5 days 8 hours ago

Great!

Boat 5 days 8 hours ago

You should get more love! That's good!

Esperanto 5 days 8 hours ago

I'm sure that would be so much better with a better quality recording.

Street 5 days 8 hours ago

Wow! That's a wonderful one!

Terra's Theme 5 days 8 hours ago

Also be sure to check out my collaborators work, we are doing a ton of songs from this OST. He goes by the name of FingerstyleGaming and is a great guitarist/collaborator. Theres always more to come as well!

Yaseta wa yo, Mune kara ne 5 days 11 hours ago

@hslesperance I also just noticed a small error towards the end that makes this a good bit harder to play. Until it is fixed please refer to the PDF for the correct tab.

Delicate Sympathy 5 days 11 hours ago

Thank you very much!

Koko kara Hajimaru Monogatari 5 days 12 hours ago

Very fun to play and another great arrangement! Keep them coming!

Ashley's Theme 5 days 12 hours ago

This is amazing!

Day by Day 1 week 59 min ago

This was pretty bad ass =)

Yaseta wa yo, Mune kara ne 1 week 3 hours ago

This was really nice, favorited!

Delicate Sympathy 1 week 3 hours ago

That was lovely, favorited!

Koko kara Hajimaru Monogatari 1 week 3 hours ago

Cause the song rocks

Corridors of Time 1 week 20 hours ago

Lovely work!

I hadn't been back here in quite a while, came and visited, saw this. Looked at your profile, looks like you haven't posted a recording in a long time either. What prompted it?

Corridors of Time 1 week 21 hours ago

What do you think of my Ilia's theme transcript? First of all, I lowered the sixth rope in d to get all the bass range and to make it easier to run. Also in my transcript all the notes are played in their actual height.https://www.youtube.com/watch?v=R76x-FwI3Cohttps://www.gametabs.net/legend-zelda-twilight-princess/ilias-theme-0

Ilia's Theme 1 week 1 day ago

Nice one. Reminds me of Albeniz's Asturias in a way

Maiden Astraea 1 week 2 days ago

This tab is a duet arrangement.

The tab on the page itself is the accompaniment, while the download link points to sheet music of the solo part. The solo part should be playable on most mid-to-high range instruments but was originally intended for violin.

If anyone wants solo part in tab form, feel free to PM me!

Aufsteigende Flügel 1 week 2 days ago

I LOVE this soundtrack, and I hope more people look into it for tabbing. Thanks for the work !

Coalescence 1 week 3 days ago

Alternate version for the second half:

E|---------11----|
B|-----8-9-------|
G|------------10-|
D|---------------|
A|---9-----------|
E|-7-------------|
Save Room 1 week 3 days ago

There is also a legend at the bottom of most of the tabs encase your not sure what the
Symbol on the page indicates. :)

Duration Legend
---------------
W - whole
H - half
Q - quarter
E - 8th
S - 16th
T - 32nd
X - 64th
. - note dotted
|-n-| - n-tuplets

Tablature Legend
----------------
L - tied note
NH - natural harmonic
^ - brush up

Eternity: Memory of Lightwaves 1 week 4 days ago

That E stands for an 'Eighth' note - meaning the note duration is an eighth of a bar (when the tab is in 4/4 time). Since this piece is in 3/4 time (meaning 3 Quarter note beats per bar), there will only be 6 of these notes denoted with E above them in each bar. The bars are separated by the | character.

If that still isn't making sense, in this song it means that every 'bar' will have 6 notes of equal duration when all notes have the E above them. If you tried counting '1-And-2-And-3-And-1-And-2-And-3-And...' over and over, the E means you would play a note every time you sounded the 'number' or 'and' out. There are other note durations used in the piece, which are;

  • Q - Quarter note. This one needs to be held twice as long as the Eighth note, hence there will be 3 of these in each bar. Going back to the '1-And..', these notes will be played every time you count a number
  • S - Sixteenth note. As you might have guessed, these need to be held half as long as an Eighth note - you play two sixteenth notes in the same time it takes to play one Eighth note
  • . - a full stop or dot next to the Letter means that you need to hold it for the notes duration, plus half as long again. In the example of Q. which is seen in this piece, while an ordinary Q means you hold the note for as long as 2 Eighths 'E E', the dotted Q means you will need to hold the note for as long as 3 Eighth notes

If you wanted to learn more, give a quick google search on note durations and tabs (can't hyperlink but there are plenty out there), or i'm happy to field questions.
Let me know if that helps at all!

Eternity: Memory of Lightwaves 1 week 4 days ago

I'm new this type of stuff and I'm having a hard time cause I don't know what the E on top of the tabs stand for?!

Eternity: Memory of Lightwaves 1 week 5 days ago

I under stand the tabs but can someone please Tell me what the E stands for on top of the tabs I'd really appreciate it!

Eternity: Memory of Lightwaves 1 week 5 days ago

5 stars no questions asked... a little hard to get the notes so far with a capo but when I get it down this tab is a must learn for Zelda fans. :D

Church 1 week 5 days ago

The only mistakes I found were both in measure 24. Fixed them to match the pdf. Let me know if anything else was wrong.

Otome Tachi no Inori 1 week 6 days ago

rev2.

       Q    E  E  Q    Q       Q    E  E  H           Q    Q    Q    E  E     Q    Q    H         
E||--------------------0----|----------------------|-----------------------|---------------------|
B||--0h2----0-----0---------|--3----2--0--2--------|--0-----------------0--|---------------------|
h||------------2------------|--2----------2--------|-----------------------|---------------------|
D||----2--------------------|--0----------2--------|-------4----6----7-----|--2------------------|
A||----0--------------------|----------------------|--6---------5----------|--4----2-------------|
E||---------------4---------|--2----------0--------|-----------------------|------------6--------|


  E  E  E  E  E  E  Q       E  E  E  E  Q    Q       Q    Q    Q     Q       E  E  E  E  Q    Q     
--------------------0----|--------------4----2----|--0--------------------|--------------0---------|
--3-----2-----2----------|--3-----2-----4---------|-------2---------------|-----------0-------3----|
-----------4-------------|-----------4--2---------|--0---------2s----4----|--------1---------------|
-----4-----------2-------|-----4------------------|------------1----------|-----4------------------|
--2-----------1----------|--2-----------3---------|--4--------------------|------------------------|
-------------------------|------------------------|------------2----------|--0---------------------|


    E  E  E  E  Q    Q       Q    E  E  E  E  Q       E  E  E  E  Q    E  E     E  E  E  E  Q      E   E   
---------------------0----|------------------------|-------------------------|---------------------9------|
--0h2-----0-----0---------|--3----2--0--2----------|--0-------------------0--|-----------4--6S----10--12--|
-------------2------------|--2----2-----------2----|--------------1----2-----|--6-----4---------------13--|
-------2--------2---------|------------------------|--1-----4-----0----------|-----6----------------------|
----0---------------------|----------------4-------|-----------2-------------|--4-------------------------|
----------------4---------|--2----1-----0----------|-----2-------------------|----------------------------|


   Q      Q    E  E  E   E     Q     Q    E  E  E  E     E  E  E  E  Q    Q       E  E  E  E  Q    E  E   
---------------------5s--4--|--4s----2----------2--0--|--0-----------2---------|-------------------------||
--12s----10----------7s--5--|--5s----3----------------|-----3--2--3--3---------|--0--------0----------0--||
--13s----11-----------------|----------------2--3-----|--4----------------1----|--------1-----2----2-----||
------------------7---------|--0----------------------|--0---------------------|-----2--------2----------||
---9------------------------|-------------4-----------|------------------------|--0-----------4----------||
---------------0------------|-------------------------|--------------0---------|--------------5----------||


  E  E  E  E  E  E  E  E     E  E  E  E  E  E  Q       Q    Q    Q    E  E     Q    Q    Q    E  E   
--------------------0-----|-------------------------|-----------------------|-----------------------|
--2-----0-----0-----------|--3-----2--0--2----------|--0-----------------0--|-----------------------|
-----------2--------------|--2-----2-----------2----|-----------------------|-----------------------|
-----2-----------2-----2--|-----0-----------2-------|-------4----6----7-----|--2-----------------0--|
--0-----------------------|-------------------------|--6---------5----------|--4----2---------------|
--------------4-----------|--2-----1-----0----------|-----------------------|------------6----------|


                                             |--3-|                                                    
  E  E  E  E  E  E  Q       E  E  E  E  Q    Q    E     Q    E  E  Q    Q       E  E  E  E  Q    Q     
--------------------0----|--------------4----2----4--|--0--------------------|------------------------|
--3-----2-----2----------|--3-----2-----4------------|-------2-----0----0----|--0--------0--3----0----|
-----------4-------------|-----------4--2------------|--0-------2------------|--------1-----1---------|
-----4-----------2-------|-----4---------------------|-------------1---------|--------4-----2---------|
--2-----------1----------|--2-----------3------------|--4--------------------|-----2------------------|
-------------------------|---------------------------|-------------2----1----|--0---------------------|


    E  E  E  E  Q    Q       Q    E  E  E  E  Q       E  E  E  E  Q    E  E     E  E  E  E  Q      E   E   
---------------------0----|------------------------|-------------------------|---------------------9------|
--0h2-----0-----0---------|--3----2--0--2----------|--0-------------------0--|-----------4--6S----10--12--|
-------------2------------|--2----2-----------2----|--------------1----2-----|--6-----4---------------13--|
-------2--------2---------|------------------------|--1-----4-----0----------|-----6----------------------|
----0---------------------|----------------4-------|-----------2-------------|--4-------------------------|
----------------4---------|--2----1-----0----------|-----2-------------------|----------------------------|


                                          >              >           >    >       >                         
   Q      Q    E  E  E   E     Q     Q    E  E  E  E     E  E  E  E  Q    Q       E  E   E  E  E  E  E  E   
---------------------5s--4--|--4s----2----------2--0--|--0-----------2---------|---------------------------||
--12s----10----------7s--5--|--5s----3----------------|-----3--2--3------------|--0---------------------0--||
--13s----11-----------------|----------------2--3-----|--------2-----1----1----|------------1--2-----2-----||
------------------7---------|--0----------------------|-----4--------2----0----|-----0h--2-----2--2--------||
---9------------------------|-------------4-----------|--2----------------2----|--0------------0-----------||
---------------0------------|-------------------------|------------------------|---------------------------||


  E  E  E  E  E  E  E  E     E  E  E  E  E  E  E  E     E  E  E  E  E  E  E  E     E  E  E  E  E  E  Q     
-----0--------2--------2--|-----0--------0--------0--|-----0--------2--------2--|-----0--------0----------|
--2--------2--------2-----|--0--------0--------0-----|--2--------2--------2-----|--0--------0--------0----|
--4-----4--------4--------|--------2--------2--------|--4-----4--------4--------|--------2--------2-------|
--0-----------------------|--------------------------|--0-----------------------|-------------------------|
--------------------------|--4-----------------------|--------------------------|--4----------------------|
--------------------------|--------------------------|--------------------------|-------------------------|


                                                        >                                               
  E  E  E  E  E  E  E  E     E  E  E  E  E  E  E  E     E  E  Q    Q    Q       E  E  E  E   A.H.
--------------0-----------|--------------------------|--------5----2---------|--------------<0>12------||
-----3-----3--------3-----|-----1--------1--------1--|--------3----3----3----|--0--------0-------------||
--2-----0--------2-----0--|--2--------2--------2-----|-----2-------2----2----|--------1----------------||
--------------------------|--------3--------3--------|------------------4----|--2-----4----------------||
--3-----------------------|--1-----------------------|--2--------------------|-----2-------------------||
--------------------------|--------------------------|-----------------------|--0----------------------||


  Q    E   E   Q     Q        Q    E  E  H           Q    Q    Q    E  E     Q    Q    Q    E  E   
--9----7------------12----|--10----9--7--9--------|-----------------------|-----------------------|
----------10--12----------|-----------------------|--0-----------------0--|--2---------1----3--4--|
--------------------------|-----------------------|------------1----2-----|-------3---------------|
--7-----------------------|-----------------------|-------4----3----------|--5---------3----------|
--------------11----------|---9----8-----7--------|--6--------------------|------------0----------|
--------------------------|-----------------------|-----------------------|-----------------------|


                                                                                             ^               
  E  E  E  E  E  E  E  E     E  E  E  E  E  E  E  E     E  E  E  E  Q    E  E     E  E  Q    E  E     E  E   
--------------------1-----|--------------------------|-------------------------|-------------------8h10--8--|
--3-----1-----1-----------|--4-----3--1--3--------3--|--1-------------------1--|--------8----7--------------|
--------2--3--------2-----|-----0--3-----------2-----|--------0-----2----3-----|--7-------------7-----------|
-----3-----------3-----3--|-----------------3--------|--2--------2--1----------|-----7-------7--------------|
--1-----------0-----------|--------------------------|-----3-------------------|--5-------------------------|
--------------------------|--3-----2-----1-----------|-------------------------|----------------------------|


                                        >                                        >                           
  E  E  E  E  E  E  E  E     E  E  Q    E  E  E  E     E  E  E  E  Q    Q        E  E   Q    E  E     E  E   
--8-----6-----------6--5--|--5-----3----------3--1--|-------------------8----|--11-----10----------8h10--8--|
--------3--------3--------|----------------3--------|--6--4--3--4--8---------|----------8-------------------|
-----0-----3--------------|-----3----------1--------|-----3--------8---------|------8-----------7-----------|
--------------5-----3-----|--1----------------------|--------5-----8---------|---------------0--------------|
--------------------------|-------------2-----------|--3---------------------|---0--------------------------|
--3-----------------------|-------------------------|--------------8---------|------------------------------|


                                        >                                                                   
  E  E  E  E  E  E  E  E     E  E  Q    E  E  E  E     E  E  E   E  S S S S Q       E  E  E  E  Q    E  E   
--8-----6-----------6--5--|--5-----3----------3--1--|--1------------6-------6----|--1----------------------|
--------3--------3--------|-------------------0-----|-----4--3h--4----------4----|-----------1--4-------1--|
-----0-----3--------------|-----3----------0--------|-----0--3------------3------|--------3----------3-----|
--------------5-----3-----|--1----------------------|-------------------3--------|-----1-------------------|
--------------------------|-------------2-----------|--3--------------3----------|-------------------------|
--3-----------------------|-------------------------|----------------------------|--2----------------------|


    Q    E  E  Q    Q       Q    E  E  Q    Q       E  E  E  E  E  E  E  E     E  E  E  E  E  E  E  E   
--------------------1----|-----------------------||--------------------------|--------------3-----------|
--2h3----1-----1---------|------------------1----||--------3-----------3-----|--------4-----------4-----|
------------3------------|--3----2--0--2---------||--3-----------3-----------|-----------3-----------3--|
-------------------------|-----------------------||-----3-----3-----3-----3--|-----5-----------5--------|
----1----------0---------|-----------------------||--1-----------------------|--------------------------|
-------------------------|--3----------1---------||--------------------------|--6-----------------------|


                                                        <      
  E  E  E  E  E  E  E  E     E  E  E  E  E  E  E  E     Q      
--------------------------|--------------------------|-------||
-----------3-----------3--|-----------4-----------4--|--3----||
--------3-----------3-----|--------3-----------3-----|--3----||
-----3-----------3--------|-----3-----------3--------|--3----||
--1-----------------------|--1-----------------------|--1----||
--------------------------|--------------------------|-------||   fine....

sample replay
https://youtu.be/hy8TwMg0wBg

Tenkiame 1 week 6 days ago

Login or Register to remove this ad.