Login or Register to remove this ad.

Recent comments

Comment Posted on Submittedsort icon

Hah fair enough would have just left that in the properties but it's good to have it up front.

Only have had the chance to listen to disk 1 but awesome production quality across all of it and the inclusion of vocals for Awakening was a nice touch, favorite track from disk 1 is probably Another World of Beasts but the entire disk was just awesome.

"World's Requiem" a Final Fantasy VI Tribute Album 19 hours 25 min ago

But i gotta credit the ppl :p

"World's Requiem" a Final Fantasy VI Tribute Album 3 days 3 hours ago

90s New Wave :p

Bonds of Sea & Fire 3 days 3 hours ago

Thank you! :D

Bonds of Sea & Fire 3 days 3 hours ago

DAFCGC - Drop C tuning

Patema Inverse 5 days 12 hours ago
          • fre3

            awedwaw

Underworld 5 days 12 hours ago

Great cover. I remember Enigma, it's been a long time since I've listened to them.

Bonds of Sea & Fire 1 week 8 hours ago

I couldnt find a way to post a guitar pro file here. The images are here:
https://imgur.com/a/Sq5K70f
This notation helps me and I wanted to post it, all credits given in the document.

Still good 6 years later.

The Dragonborn Comes 1 week 1 day ago

What kind of tuning in the guitar do you use?

Patema Inverse 1 week 1 day ago

Not going to lie been swamped at work and wasn't even home this weekend, listening to it at work today as it's a slow day. :)

First impressions... use shorter file names! Had to rename a few because they failed to extract. lol

"World's Requiem" a Final Fantasy VI Tribute Album 1 week 3 days ago

That was a great cover! This song was one of my favorites from the album, and you really gave it that "chill" feel :)

Bonds of Sea & Fire 1 week 4 days ago

So, what do you think of it? :D

"World's Requiem" a Final Fantasy VI Tribute Album 2 weeks 17 hours ago

Perfect tab dude!!!!

Flashman's Stage 2 weeks 1 day ago

I've adjusted this tab for Drop D tuning, Capo 3, since it sounds closer to the original.
It's more difficult, but definitely playable.

Drop D - Capo 3

Q=80
6/8
Gtr I
E E E E E E E E E Q. E E E E E E E E E E E E E E E E E E
|-----3-----3-|-----3-----|-------0-----|-------------|-------------|
|-0-1---0-1---|-0-1-------|-------1-----|-------1-----|-------1-----|
|-------0-----|-0-----2---|-----0---0---|-----0---0---|-----2---2---|
|-------------|-----------|---2-------2-|---2-------2-|---2-------2-|
|-0-----------|-----------|-0-----------|-0-----------|-------------|
|-------------|-----------|-------------|-------------|-3-----------|

E E E E E E E E E E E E E E E E E E E E E E E E E E E E E E
|-0-----------|-------0-----|-0-----------|-------0-----|-0-----------|
|-------1-----|-------1-----|-------1-----|-------1-----|-------1-----|
|-----2---2---|-----0---0---|-----0---0---|-----2---2---|-----2---2---|
|---2-------2-|---2-------2-|---2-------2-|---2-------2-|---2-------2-|
|-------------|-0-----------|-------------|-------------|-------------|
|-------------|-------------|-------------|-3-----------|-------------|

E E E E E E E E E E E E E E E E E E E E E E E E E E E E E E
|-------------|-----------0-|-------0-----|-------3-----|-------0-----|
|-------3-----|-------------|-------1-----|-------5-----|-------1-----|
|-------2-----|-2---2-1-----|-----0---0---|---0-5---5-0-|-----2---2---|
|-----3---3-0-|---0-----0---|---2-------2-|-------------|---2-------2-|
|---3---------|-------------|-0-----------|-------------|-------------|
|-0-----------|-2-----------|-------------|-5-----------|-3-----------|

E E E E E E E E E E E E E E E E E E E E E E E E E E E Q E
|-------0-----|-------------|-------0-----|-------------|-7-----3----|
|-------1-----|-------3-----|-------0-----|-0-1---1-----|-----5----5-|
|-----2---2---|-------2-----|-----1---1---|---------0---|-0-5--------|
|---2-------2-|-----3---3---|---2-------2-|-----2-----2-|------------|
|-------------|---3-------3-|-------------|-0-----------|------------|
|-2-----------|-0-----------|-2-----------|-------------|------------|

E E E E E E E E E E E E E E E E E E E E E Q. E E E E E E
|-------------|-0-----------|-------0-----|-7-----3----|-------------|
|-------1-----|-------1-----|-0-1---------|-----5------|-------1-----|
|-----2---2---|-----2---2---|-----------0-|-0-5--------|-----2---2---|
|---2-------2-|---2-------2-|-----2---2---|------------|---2-------2-|
|-------------|-------------|-0-----------|------------|-------------|
|-3-----------|-------------|-------------|------------|-3-----------|

E E E Q. E E E E E E E E E E E E E E E E E E E E E E Q
|-0----------|-------------|-------------|-------------|------------|
|-------1----|-------3-----|-----------0-|-----0-1-----|-------5----|
|-----2------|-------2-----|-----2-1-----|-----0-0-----|---0-5---5--|
|---2--------|-----3---3-0-|---0-----0---|---2---------|------------|
|------------|---3---------|-------------|-0-------3-0-|------------|
|------------|-0-----------|-2-----------|-------------|-5----------|

E E E E E E E E E E E E E E E E Q E E E E E E E E E E E E
|-------0-----|-------------|------------|-------0-----||--------0-----|
|-------1-----|-------1-----|-------3----|-0-------0---||o-0-1---1-----|
|-2---2---2---|-2---2---2---|-------2----|-----1-----1-||------0---0---|
|---2-------2-|---2-------2-|-----3---3--|---2---------||----2-------2-|
|-------------|-------------|---3--------|-------------||o-0-----------|
|-3-----------|-2-----------|-0----------|-2-----------||--------------|

E E E E E E E E E E E E E E E E E E E E E E E E E E E E E E
|-------------|-------3-----|-------------|-------------|-------0-----|
|-------3-----|-----0-1-0---|-2-----2-----|-------3-----|-----1---1---|
|-----1---1---|---0-------0-|-----0---0---|-------2-----|---0-------0-|
|---2-------2-|-------------|---2-------2-|-----3---3-0-|-------------|
|-2-----------|-3-----------|-0-----------|---3---------|-3-----------|
|-------------|-------------|-------------|-0-----------|-------------|

E E E E E E E Q E E E E E E E E E E E E E E E E E E E E E
|-------------|----------0-|-------0-----|-------------|-------3-----|
|-------3-----|-0----0-----|-------1-----|-------3-----|-----0-1-0---|
|-----2---2---|--------2---|-----0---0---|-----1---1---|---0-------0-|
|---3-------3-|---0--------|---2-------2-|---2-------2-|-------------|
|-2-----------|------------|-0-----------|-2-----------|-3-----------|
|-------------|-2----------|-------------|-------------|-------------|

E E E E E E E E E E E E E E E E E E E E E E E E E E E E E E
|-------0-----|-------------|-------0-----|-------0-------------------||
|-2-----2-----|-------3-----|-------0-----|-------1------0-----0---0-o||
|-----0---0---|-------2-----|-----1---1---|-----2---2----2---2-1------||
|---2-------2-|-----3---3-0-|---2-------2-|---2-------2----0-----0----||
|-0-----------|---3---------|-------------|--------------------------o||
|-------------|-2-----------|-2-----------|-3------------2------------||

E E E E E E
|----------------*|
|-------1--------*|
|-2---2---2------*|
|---2-------2----*|
|----------------*|
|-2--------------*|

Aside from that, everything else is perfect. Thanks for the arrangement.

Edit: I don't know how to format this properly, but if you copy it into a text document it should come out fine.

Song of the Ancients - Devola 2 weeks 1 day ago

Thank you =)

Schala's Theme 2 weeks 4 days ago

Aagh, I remember this one!

I also studied as a teenager, have some really fond memories of learning Carcassi.

Anyway, very well played. Your intonation is clear and strong and I enjoyed your take on the piece.

(Psst, I think it might be Op 60)

Study Op 50, No 7 2 weeks 5 days ago

Really good stuff. Makes me think Chrono meets Mike Oldfield but still recognizably hashel.

Schala's Theme 2 weeks 5 days ago

Same comments as above. Why did you change keys?

Pokemon Theme Song 3 weeks 7 hours ago

Simply beautiful

Noah's Lute 3 weeks 1 day ago

Good job !

Stage Builder 3 weeks 1 day ago

Very nice work looking forward to throwing it on my sound system when I get home.

"World's Requiem" a Final Fantasy VI Tribute Album 3 weeks 1 day ago

Thanks a lot my dude :D

Schala's Theme 3 weeks 2 days ago

this is something else...i love it!

Grasswalk 3 weeks 3 days ago

Bad ass man, good job =)

Schala's Theme 3 weeks 4 days ago

I love this arrangement, but I think bar 3 of the 4th line:
|--5-------5----9-|
|--------5---------|
|-----7-------7----|
|-------------------|
|-------------------|
|--2---------------|
could be played like this:
|--5-----0-5----9-|
|-----3--------3---|
|-------------------|
|-------------------|
|-------------------|
|--2---------------|
that way the bass note can be held for the bar's duration

Comet Observatory 3 weeks 6 days ago

This is as epic as the battle with Kanako ! hope to see your cover soon

Suwa Foughten Field ~ Venerable Ancient Battlefield (UI-70 ver) 4 weeks 1 day ago

Thanks!

Oh my mom didn't push me in the slightest, I started teaching guitar lessons at 16 =)

Study Op 50, No 7 4 weeks 1 day ago

Oh excellent work sir very clean playing, this is an awesome song. Also your mom had some
crazy expectations for 16 year old you. lol

Study Op 50, No 7 4 weeks 3 days ago

Hmm nice work did you end up creating tabs?

Some good finger work in your video though sir, a bit inconsistent with the timing
but not bad at all.

Stormwind theme 5 weeks 2 days ago

This is pretty late, but I end up changing a lot of the arrangement and post it
https://www.youtube.com/watch?v=heJs0Vqr5ZM&lc=z220yl3omqrogh4fracdp43b5...

Stormwind theme 5 weeks 3 days ago

9
8
-
-
4
-

Holy jesus

Crystal Cave 7 weeks 19 hours ago

Such a good tab. Fairly easy to play (apart from that ridiculously fast part marked as triplets) and sounds quite impressive.

Shadowlord 7 weeks 1 day ago

Bass is too high, making it more of a guitar three.
I dropped sixth string down to c and played everything one octave lower. It sounds much better

Dungeon 8 weeks 21 hours ago

Awesome! Beautiful song and you played very well. Keep the good work ^^

Faltering Prayer 8 weeks 1 day ago

Boutta learn this

Comet Observatory (Super Guitar Bros Version) 8 weeks 3 days ago

I find it easier to play the first two bars like this:

E|--------------------------------|-----------------------------|
B|--3-----3-----3-----3--------|--3-----3-----3-----3-----|
G|--5-----5-----3-----3--------|--2-----2-----3-----3-----|
D|------0-----0-----0-----0----|-----0-----0-----0-----0--|
A|--------------------------------|-----------------------------|
E|--------------------------------|-----------------------------|

K.K. Steep Hill 8 weeks 3 days ago

Looks like a banjo tab written by a guitarist. Why would you flatpick a banjo?

Glitter Gulch Mine 9 weeks 9 hours ago

Yep shes got a strong heart only 160k KM despite how old she is, and at 300HP and mint interior
I'd rather drive her into the ground then a beater that's a few years newer.

"The Green (Greens) Album" a Kirby Tribute Album! 9 weeks 12 hours ago

Keep in mind that this tab has a capo on the second fret!

Platinum Disco 9 weeks 2 days ago

Ah yeah, old girl ^^

"The Green (Greens) Album" a Kirby Tribute Album! 9 weeks 2 days ago

Well she is 16 years old so lots of regular maintenance to keep up on, but alas was in a car crash last month so been busy dealing with insurance and getting her fixed.

"The Green (Greens) Album" a Kirby Tribute Album! 9 weeks 3 days ago

You seem to have a lot of problems with your car, don't you? ^^'

Hope you'll enjoy the album!

"The Green (Greens) Album" a Kirby Tribute Album! 9 weeks 6 days ago

Well I got something to listen too while I rebuild my car this weekend now. lol

"The Green (Greens) Album" a Kirby Tribute Album! 9 weeks 6 days ago

Probably not seeing this
But I modified the tabs so that you can keep similar shapes throughout the song and not Chavez to do as much work, couldn’t have done it without you

Overworld 10 weeks 4 days ago

Good tab, great exsercise

Am I the only one I’m 2018

L's Theme 11 weeks 12 hours ago
Dogsong 11 weeks 21 hours ago

Glad you like it! Cool with me man, your track sounds great and i wish you all the best :)

Peaceful Sleep (Instrumental) 11 weeks 4 days ago

Thanks, glad you like it! I'm eventually going to update the tab with more notes added into some sections! :3

Overfly 11 weeks 4 days ago

I love this tab it sounds so perfect! Thank you so much for making this <3

Overfly 11 weeks 6 days ago

Super nice Tab! Feels very good to play :)

Emil - Sacrifice 11 weeks 6 days ago

Login or Register to remove this ad.