Recent comments

Comment Posted on Submittedsort icon

heyya Doomofallfires!, I just wanna say thanks for the tabs..now I can daydream staring at the trees moving with the winds while playing my guitar..

play:Thanks a million

Fisherman's Horizon 17 hours 38 min ago

Is it just me or does parts of this tab not match up with other areas?
some parts are longer and some parts are shorter

Festival of Stars 2 days 25 min ago

Link taught him with the Wind Waker.

Earth God's Lyric 2 days 7 hours ago

This is pretty good, but it could really use some time markers or at least measure separation. After getting the timings down, I like it.

Call Me Call Me 5 days 22 hours ago

Beautiful song, great tab.

Thanks :D

Tabi no Tochuu (animelodies1 version) 2 weeks 5 days ago

Guitar and Bass power tabs in one part, second guitar in another tab.

Opening 2 - Guitar 1 / Bass 3 weeks 1 hour ago

thanks! it truly is a great game, one of my favorite J-RPGs. I was about 12 when it came out and I firmly believe the soundtrack had a huge influence on me (not as much as Uematsu, but still), and is responsible for my interest in Japanese jazz/fusion as an adult.

To a Distant Place 3 weeks 1 day ago

Even after 4 years I keep coming back to this. It's a very relaxing song to play and listen to.

Nanairo no Sora wo 3 weeks 1 day ago

So fun to play~

Green Greens 3 weeks 3 days ago

Very nice. I loved this game growing up, still have it in a closet somewhere, really need to go through it again.

To a Distant Place 3 weeks 3 days ago

i wanted to learn how to play megolavania not break my hands!

Megalovania 3 weeks 4 days ago

This is awesome :D

Slide Show Part 2 3 weeks 5 days ago

Thanks! ^^

The One who is Torn Apart 4 weeks 1 day ago

Thanks for tabbing all these MechaKrauser :)

Senjougahara-senpai 4 weeks 2 days ago

ow

The Little Picture 4 weeks 3 days ago

Thanks?

Overture 4 weeks 4 days ago

Hah yeah the electric guitar version isn't so kind, thanks for posting on this tab though
I've been here for years and still find tabs from ages ago that are gems. lol

God Knows 4 weeks 5 days ago

This is fantasic. The tuning gives it such a deep and mellow sound.

To Zanarkand 4 weeks 5 days ago

Thought this would be a struggle but it's surprisingly manageable thanks to the arrangement, and sounds awesome. Great job.

God Knows 4 weeks 5 days ago

Nice

"Shattered Memories" a 20th Anniversary XenoGears Tribute Album 5 weeks 20 hours ago

Nice

Assassin Cross of Sunset 5 weeks 1 day ago

Good tab, but this wasn't in Sonic the Hedgehog 2.

Green Hill Zone 5 weeks 2 days ago

ok, if anybody is reading this tab now, the 12345678 happening in the E string was just a rhythmic marker for me when making the tab, you don't actually play that xD that was supposed to be erased in the submission, but i forgot

5:00 AM 5 weeks 4 days ago

good job

Title 5 weeks 4 days ago

love this song. Thank you!

The First Campaign 5 weeks 4 days ago

ok

Sandy's Theme 5 weeks 4 days ago

liked

Theme Song 5 weeks 4 days ago

Awesome

Theme of Morroc 5 weeks 5 days ago

wow

This is Halloween 5 weeks 5 days ago

Tristram (20 String Harp Guitar) 5 weeks 5 days ago

so often in childhood I played this game, that the whole song was sung by the motive) it is unforgettable)

Title Screen 5 weeks 5 days ago

That was so good, thank you for making this =)

Corridors of Time (Washi981 Version) 5 weeks 5 days ago

This is awesome!

The One who is Torn Apart 5 weeks 5 days ago

stunningly!!

Lut Gholein 5 weeks 6 days ago
Day Time (Intro) 6 weeks 54 min ago

its wonderful!!!!!

The One who is Torn Apart 6 weeks 1 day ago

Damn bro beginners mistake. Trying to get this edited and reuploaded for the time being. Next time lose the attitude lmao.

Butterfly Kiss (Clinic Theme) 6 weeks 1 day ago

i like the lyrics and the sound of the words are nice and powerful you did a job well done

Overture 6 weeks 1 day ago

hey my name is marlen thompson you did a great job i like it !!!!!!!

Theme of Payon 6 weeks 2 days ago

Cool

Theme of Payon 6 weeks 2 days ago

Cool

Super Drive 6 weeks 2 days ago

Thanks a lot :D

The One who is Torn Apart 6 weeks 2 days ago

I love it!

The One who is Torn Apart 6 weeks 2 days ago

Sorry boys, I messed up the tab slightly since it was my first time.

The verse should be:

Verse

E|---------------------------------------------------------------------------------|
B|---------------------------------------------------------------------------------|
G|--9-11-7-9-6-7-4/6-6-7-6-7-6-----(6)-7-9-11-7-9-6-7-6------------|
D|--------------------------------------7~----------------------------4/7-7-7--|
A|---------------------------------------------------------------------------------|
E|---------------------------------------------------------------------------------|

E|---------------------------------------------------------------------------------|
B|---------------------------------------------------------------------------------|
G|--9-11-7-9-6-7-4/6-6-7-6-7-6--------------------------------------------| x2
D|--------------------------------------7~--7/9---------------------------------|
A|---------------------------------------------------------------------------------|

The first bar of the chorus should be:

E|---------------------------------------------------------------------------------|
B|---------5/8~--10-8----------------------------------------------------------|
G|----4-5---------------9-4-4-5----4-5-9---9-7-----------------------------|
D|--7--------------------------------7--------7-----9----9-9-10--------------|
A|------------------------------------------------------10-----------------------|
E|---------------------------------------------------------------------------------|

Battle -Raidou- 2008 6 weeks 3 days ago

Its very cool

E1M8: Phobos Anomaly 6 weeks 3 days ago

its a good song

Underworld 6 weeks 3 days ago

I've played a ton of different arrangements of this song over the years and this one tops them all. Definitely higher level but with a payoff to boot!

Corridors of Time (Washi981 Version) 7 weeks 1 day ago

Yo this is a banger thank you so much dude!

Corridors of Time (Washi981 Version) 7 weeks 2 days ago

Thank you so much! I've listened to this cover God knows how many times and have always wanted to play it! Do striderxxoriginal's "Flight" from Xenogears next time!!!

Corridors of Time (Washi981 Version) 7 weeks 2 days ago

This song was amazing to play

Pokemon Theme Song 7 weeks 3 days ago