Ads

Recent comments

Comment Posted on Submittedsort icon

Great tab!

Pitch Black Intrusion 57 min 2 sec ago

nice to see you still uploading YnS tabs.
I still have your early ones printed out on paper from 2013/14 :)

Your Laughter 1 day 4 hours ago

I especially like the section that you wrote as "more romantic" I usually play this song very fluidly as this sounds best to me. Do you write/arrange stuff for a living?? very good stuff, I've played a lot of your tabs before but I'm not used to doing so many of the artificial harmonics as you do in some other songs. Nice work.

Voice of No Return 2 days 19 hours ago

updating tab. should be easier to let stuff ring out longer.
*on measure2 the <5> harmonic is an artificial harmonic so play the harmonic at fret 17 not 5
same with the other ones marked AH.

drop d tuning
bpm = 104

                           *AH
     Q    Q    Q       Q    H           Q    Q    Q       Q    H
E||-----------------|----------------|-----------------|----------------|
B||-<3>-------------|----------------|-<0>-------------|----------------|
G||-----------------|------<5>-------|------------0----|--2---<2>-------|
D||------------5----|--7-------------|-----------------|----------------|
A||-------3---------|----------------|-------3---------|----------------|
D||--3--------------|----------------|--3--------------|----------------|

  Q    Q    Q       Q    H           Q    Q    Q       Q    H
-----------------|----------------|-----------------|----------------|
-----------------|----------------|-----------------|-------3--------|
-<0>-------------|--4-------------|-----------------|--4-------------|
------------5----|------<4>-------|-<2>--------5----|----------------|
-------2---------|----------------|-------2---------|----------------|
--2--------------|----------------|--2--------------|----------------| 
                         AH
  Q    Q    Q       Q    H           Q    Q    Q       Q    H
-----------------|----------------|-----------------|----------------|
-<3>-------------|----------------|-<0>-------------|----------------|
-----------------|------<5>-------|------------0----|--2---<2>-------|
------------5----|--7-------------|-----------------|----------------|
-------3---------|----------------|-------3---------|----------------|
--3--------------|----------------|--3--------------|----------------|
 
  Q    Q    Q       Q    H           Q    Q    Q       Q    H  
-----------------|----------------|-----------------|----------------|
-----------------|----------------|-----------------|----------------|
-<0>-------------|--4-------------|------------0----|----------------|
------------5----|------<4>-------|-<2>-------------|-<0>--<2>-------|
-------2---------|----------------|-------2---------|----------------|
--2--------------|----------------|--2--------------|----------------|

  Q    Q    Q      Q    H           Q    Q    Q       Q    H
-----------<0>--|----------------|-----------------|----------------|
----------------|------<3>-------|-<1>-------------|------<3>-------|
----------------|-------2--------|-----------------|-------2--------|
-<3>--------0---|--3-------------|------------0----|--3-------------|
-------0--------|----------------|-------0---------|----------------|
--0-------------|----------------|--0--------------|----------------|

  Q    Q    Q       Q    H           Q    Q    Q       Q    H
-----------------|----------------|-----------------|----------------|
-----------<3>---|------<1>-------|-<0>-------------|----------------|
-<0>-------------|--0----0--------|-----------------|--0---<0>-------|
------------2----|----------------|------------2----|----------------|
-------2---------|----------------|-------2---------|----------------|
--2--------------|----------------|--2--------------|----------------|
  AH                                 AH
  Q    Q    Q       Q    H           Q    Q    Q       Q    H
-----------<0>---|----------------|-----------------|----------------|
-----------------|------<3>-------|-----------------|------<3>-------|
-----------------|-------5--------|-<5>-------------|----------------|
-<7>--------3----|--7-------------|------------3----|--7----3--------|
-------3---------|----------------|-------3---------|----------------|
--3--------------|----------------|--3--------------|----------------|
   
  Q    Q    Q       Q    Q    Q       H        Q       Q     H
-----------------|-----------------|--0--------3----|--L--------------|
-<0>-------------|------------3----|----------------|-------<0>-------|
-----------------|--0----4---------|----------------|-----------------|
------------2----|-----------------|----------------|-----------------|
-------2---------|-----------------|----------------|-----------------|
--2--------------|-----------------|----------------|-----------------|
 
  Q    Q    Q       Q    H           Q    Q    Q       Q    H
-----------------|----------------|-----------------|----------------|
-<3>-------------|------<1>-------|-<0>-------------|----------------|
------------0----|--2-------------|------------0----|--2---<2>-------|
-----------------|----------------|-----------------|----------------|
-------3---------|----------------|-------3---------|----------------|
--3--------------|----------------|--3--------------|----------------|
  ^
  H.
-------------------|
-<0>---------------|
-------------------|
--2----------------|
--5----------------|
--3----------------|
Planet (Lonely Version) 4 days 2 hours ago

Thank you for the feedback. It's a fun song for sure.

Main Menu 5 days 1 hour ago

Hey, thanks! I'm glad you like my comp style.

Yes you nailed it: My philosophy is typically stay true wherever I can but where it doesn't feel right on forming the chord or if it takes too long to crawl up the neck and back down, I'll make a sacrifice in octave. It bugs me to do it, because naturally then I sacrifice my ear instead... I want people to have fun playing, and I'm just an intermediate player myself (with smaller hands ha), so honestly I want to have fun playing them too (just a bit selfish). A big case of sacrifice in my other tabs you'll notice is DK 64 Jungle Japes. It's just hard enough to play as it is so I put it on the lower frets.

At the end of the day, what you do is your style and although there's right and wrong in this world, I don't think there's a right or wrong way to do it if you and others like your tabs! I'll make sure to check yours out and tell you what I think. Cheers!

Route 1 5 days 1 hour ago

its lovely thanks

Your Laughter 6 days 29 min ago

Everything should now be correct, thank you :)

Peace of Mind 1 week 1 day ago

I love it, favorited

Tears of the Stars Hearts of the People 1 week 1 day ago

I have 100s of bookmarks for that site and lots of my own tabs too. Does anyone have an archive of the tabs? Is there anything the community can do to get the site back up like donations or something?

If that site is a lost spacebar counter cause, then where is the next best place to go? Gametabs outshined every site last I checked.

Dr. Bumby 1 week 3 days ago

im liking all your tabs im playing. i have a question about how you arrange them if you don't mind answering. is playability something your emphasize over staying true to the original and to what extent? ie, rather than trying to stay in the original octave(?not sure if thats the right term)

like this instead of what you have written.

part2

   e  e  e  e  e  e  e  s s
|--3--3--0-----8--7--5--8----
|--1--1-----1----------------
|--------0--------0----------
|--------2-------------------
|--3-----------8-----8----8--
|----------------------------

this is just an example, i'm not saying the measure i changed it into is particularly difficult, just that its harder

the reason i ask is cause i usually try to stay as close as i can to the original. while i was playing your tabs, say this one for example, i was thinking that measures like the one i changed above could be played like the original, but sometimes staying true to the original means having weird and almost unplayable chord positions.(i don't know if this was the case for this specific arrangement, i haven't tried changing the whole thing to stay in the original octave)

that said, i really liked your tabs i played, and feel that if i were to focus more on playability then i would have more tabs done. not that i will change my ways, im too stubborn.

sorry if anything i wrote is confusing.i hope i got my point across.

Route 1 1 week 3 days ago

thats really good thanks

Main Menu 1 week 4 days ago

I do enjoy a good beer

Reminiscence Heart 2 weeks 2 days ago

it sounds amazing on my guitar.

Main Theme 2 weeks 6 days ago

Lol, tnx. There's a lot more to come.

Dearly Beloved 2 weeks 6 days ago

youve been busy lately. nice work.

Dearly Beloved 3 weeks 1 hour ago

() is supposed to be more about optional notes than ghost notes but you can play it both ways.

Pitch Black Intrusion 3 weeks 1 day ago

Bet you'll never see this comment but, imma say you're wrong and i love this song and i play this tab until today

Minish Village 3 weeks 1 day ago

Yaaaaaas

Main Theme - Prelude 3 weeks 1 day ago

Yayayayaa

Konda Village Night 3 weeks 3 days ago

i like your tabs! :)

Theme of Payon 3 weeks 3 days ago

楽しみです

Rustboro City 3 weeks 4 days ago

Thanks for the suggestion,
I hadn't thought of this idea during the arrangement.
I'll try to adopt the techniques like it, when I get better on the guitar!

Rustboro City 3 weeks 4 days ago

thanks for the update H.F.
i found that in some measures there's a perfect amount of space to throw in some thumb slaps and i like how it sounds.

i tried playing an example: https://youtu.be/wtMqml6SjI4

Rustboro City 3 weeks 4 days ago

Video Example:
https://www.gametabs.net/recording/hf/rustboro-city

TAB PDF:
https://classicmeal-guitar.com/?p=440

Legend
L - tied note
h - hammer on/pull off

Capo 1st

E |----------------------------------------------------------------------------||
B |-----------------------------0----------------------------------------------||
G |-----------1--------2-----------------2--------1h-2h-1-----------1----------||
D |--------------------------------------------------------4-------------------||
A |----------------------------------------------------------------------------||
E |--------------------------------------------------------0-------------------||


-------------------2--0----|-----0----------------------|
----------------------2----|-----2-----3--2-----0h-1----|
o---------------------1----|-----1--------1--2----------|
o2--------------2----------|-----------4----------------|
-0--------0----------------|--0-------------------------|
-------------0-------------|--------------0-------------|


----------------------------|----------------------------|
--2--------------3-----2----|----------------------------|
-----------------4-----3----|-----------------------1----|
----------------------------|--4--------------4--4-------|
--2--------2----------------|--2--------2----------------|
--------------2-------------|--------------2-------------|


----------------------------------------------------|
--------------------0-------------------------------|
--2--------------------2--1-------------------------|
--------------------------------------------4-------|
--------------------------2-------------------------|
--0-------------------------------------------------|


--------------------------------------3--------1h-3h-1--0-------------------|
-----------------------------------------------------------------3----------|
-----------1----------------------------------------------------------------|
-----------------------------2--------------------------0-------------------|
----------------------------------------------------------------------------|
--0-------------------------------------------------------------------------|


--0--------0-----------0L---|
--1-----0--0--------0--3L---|
--2--2-----0-----2-----2L---|
--3-------------------------|
-----------3-----------2L---|
----------------------------|


--0--------------------------3-----------------1h-3h-1--0-------------------|
--3-----------------0--------------------------------------------3----------|
--2--------2-----------------2--------------------------0-------------------|
-----------------------------------------------------------------3----------|
--2--------------------------1----------------------------------------------|
----------------------------------------------------------------------------|


--------------------2--0----|-----0----------------------|
--0-----2--------------2----|-----2-----3--2-----0h-1----|
--1--------2-----------1----|-----1--------1--2----------|
--2--------------2----------|-----------4----------------|
--0-------------------------|--0-------------------------|
--------------0-------------|--------------0-------------|


----------------------------|----------------------------|
--2--------------3-----2----|----------------------------|
----------------------------|--4--2-----------------1----|
----------------------------|-----------4-----4--4-------|
--2--------2----------------|--2-------------------------|
--------------2-------------|--------------2-------------|


----------------------------------------------------|
--------------------0-------------------------------|
--2--------------------2--1-------------------------|
--------------------------------------------4-------|
--------------------------2-------------------------|
--0-------------------------------------------------|


----------------------------------------------------------------------------|
----------------------------------------------------------------------------|
-----------1--------------------------0-------------------------------------|
-----------------------------3-----------------3h-5h-3--2--------0----------|
--------------------------------------2-------------------------------------|
--0-------------------------------------------------------------------------|


--0--------0-----------0L---|--0--------0--------1-------|
--1-----0--0--------0--3L---|--3-----0--3----------------|
--2--2-----0-----2-----2L---|--2--2-----3----------------|
--3-------------------------|-----------2----------------|
-----------3-----------2L---|--2-------------------------|
----------------------------|----------------------------|


--2-------------------------|----------------------------|
--2--------------------0----|-----0--------2h-0--2--3----|
--2-----------------1--2----|--------2-------------------|
--0-----4--------4-----3----|-----3--------3-------------|
--------------0-------------|--5-----------0-------------|
----------------------------|----------------------------|


--0--------------------0----|--2-----0-------------------|
--0--------------3--3-------|--0-----------0-----0h-2----|
----------------------------|--------0-----0--3--0-------|
----------------------------|-----------------2----------|
--4--------4----------------|--4-------------------------|
--------------4-------------|--------------3-------------|


----------------------------|
--3-----------------3-------|
-----------2-----2-----2----|
-----------4----------------|
--2-------------------------|
--------------2-------------|


----------------------------------------------------|
----------------------------------------------------|
--2-----2-----1-----------------------1-----1h-2----|
--------------------------------4-------------------|
--------------------------5-------------------------|
--0-----------------0-------------------------------|


----------------------------|----------------|--2-------------------------|
--0-------------------------|--2-------------|--2-----------------0--3----|
--1--2--1--2-----1----------|--0--3--0-------|--2-----2--------2----------|
--2--------2-----2-----2----|-----2-----4----|--0--------------4-----3----|
--0-----------0-------------|--------4-------|--------------0-------------|
----------------------------|--3-------------|----------------------------|


--------------------0-------|----------------------------|
-----3--------3-------------|--2--------2-----1--1--2----|
--------6-----2-----2-------|--4-----4-------------------|
-----3--------3-----3-------|----------------------------|
--5-----------0-------------|--4-------------------------|
----------------------------|--------------4-------------|


--2-----0-----------------------------0-------------|
--0-----------------3-----0-----2h-3--2-------------|
--0-----------3-------------------------------------|
--------------2-------------------------------------|
--4-----------------------------2-----1-------------|
--------------------------3-------------------------|


----------------------------|--------------------0-------|
--2-------------------------|--3--3--2-----3-------------|
--------2--------2--2--4----|--2-----------1-------------|
--4-------------------------|--------------3-------------|
--2-------------------------|--2-------------------------|
--------------2-------------|----------------------------|


----------------------------|
--2h-0----------------------|
--1-----2--------1----------|
--2--------4-----------2----|
--0-------------------------|
--------------0-------------|


---------------------------------------------------------------------------|||
---------------------------------------------------------------------------|||
-----------2--------2--------2--------2--------1h-2h-1-----------1--------o|||
-----------2--------2--------2--------------------------4-----------------o|||
-----------0--------0--------0--------0------------------------------------|||
--------------------------------------------------------0------------------|||

Rustboro City 3 weeks 5 days ago

update: i've been playing this song on and off for the past month but ive made good progress. it was really hard in the beginning but its starting to sound good. ive spent so much time on it already now i feel like i should go all the way and try to get as close as i can to 'perfect'. so sorry for the wait

Galdin Quay 4 weeks 21 hours ago

It's a good one, and very simple. The chorus melody is somewhat bittersweet, maybe a bit nostalgic too.

Ice Cap Zone 4 weeks 5 days ago

is it just me, or does the low 3 on the 12th measure sound off? ( the second measure shown here)

  Q  Q  E E Q  E E E E   Q  E E E E H    Q
|-1--0------0----------|-----------------------||
|--------------3------0-|-1----------1---------o||
|---------0---------0---|----------0------------||
|------------------------|--------2--------------||
|-----------2-----------|------3---------------o||
|-3-----3--------3-----|-3--3------------3-----||

Is it a typo? cause this sounds better to me, could be wrong tho

  Q  Q  E E Q  E E E E   Q  E E E E H    Q
|-1--0------0----------|-----------------------||
|--------------3------0-|-1----------1---------o||
|---------0---------0---|----------0------------||
|------------------------|--------2--------------||
|-----------2-----------|-3----3---------------o||
|-3-----3--------3-----|----3------------3-----||
Comet Observatory 4 weeks 5 days ago

nice

History Maker 4 weeks 6 days ago

I played it on a classical and had no trouble with the higher frets. I like having the capo on 5 because tabs that aren't in the original key are stupid; the song doesnt even sound the same if its not in the original key.

this arrangement is stellar. difficult though.

Touching You 4 weeks 6 days ago

amazing song amazing tab

Pokke Village 4 weeks 6 days ago

a very pretty song

Shoudou (piano ver.) 4 weeks 6 days ago

suteki!

Shiawase no Yokan 5 weeks 20 min ago

Nice.

Il Vento D'oro 5 weeks 21 hours ago

So great! I rememember we had a gaming magazine, and this melody would always be be at the top of fan chart.

Ice Cap Zone 5 weeks 2 days ago

So great to see the arrangement! I thought it was impossible to play it solo. If possible, could you please add an external link to the tab? When you press "download", the site givs an error.

Battle Theme 1 5 weeks 2 days ago

I love it.

2 AM 5 weeks 2 days ago

I've got some long ass fingers so none of these stretch's bothered me. Perfect tab to a perfect bit of music. Thank you.

Frontier Village ~ Dali 5 weeks 2 days ago

I feel like this song wants to be played fast but it's missing enough notes to do so. It has an incredibly awkward timing/feel.

Like it's not a fast song, nor slow, nor medium. It's like a slow song trying to be fast and caught in an awkward in between stage.

also, half step down sounds a lot better as its the original key.

Terra (Blitzwater version) 5 weeks 4 days ago

top notch stuff

Serenity 5 weeks 4 days ago

This sounds heavenly

The Streets of Whiterun 5 weeks 5 days ago

tune down 3 half steps to C# standard for original key. it sounds very great.

Call of Magic 6 weeks 17 hours ago

even 11 years later i can't find any good tabs for this gem :(

Silky Heart 6 weeks 1 day ago

this is really so nice vidmate mobdro

I R Sam 6 weeks 1 day ago

Fantastic!!!!! <3

Naminé 6 weeks 1 day ago

hell yeah dude

Main Theme 6 weeks 2 days ago

Well, i'm gonna leave the YT link here for anyone who wants to listen to this TAB being played through a VST instrument: https://www.youtube.com/watch?v=v0SBbMJ0oDk

Opening Stage X 6 weeks 5 days ago

The "Download" and "Listen" buttons aren't working anymore. Is there a solution for this? It's been happening with the latest tabs.

Opening Stage X 7 weeks 21 hours ago

Updated.

TAB:
https://classicmeal-guitar.com/?p=227

Video example:
https://www.gametabs.net/recording/hf/lacunosa-town

Lacunosa Town 7 weeks 3 days ago

I sadly don't know of any way to edit the description as the author so I hope a link in the comments will suffice
https://drive.google.com/file/d/10w-YdiM99SZ2IOHaYJuh7kwffCKnkTcO/view?u...

Tears of the Stars Hearts of the People 7 weeks 4 days ago