Ads

Recent comments

Comment Posted on Submittedsort icon

heck yeah

Navi Clash! 2 days 22 hours ago

Sounds beautiful, thanks

It's Raining Somewhere Else 4 days 20 hours ago

Tab is pretty good but there are a few points where the backing should be played at the same time as some notes so the timing is slightly off

Wet Hands 6 days 23 hours ago

so good

Via Purifico 1 week 23 hours ago

The following guitar performance is associated with this tablature.https://www.gametabs.net/recording/chimatte/jawakarakana-jikan

JAWAKARAKANA JIKAN 1 week 3 days ago

The following guitar performance is combined with the tablature.https://www.gametabs.net/recording/chimatte/grief

Grief 1 week 3 days ago

The following guitar performance is combined with the tablature.https://www.gametabs.net/recording/chimatte/reminiscence

Reminiscence 1 week 3 days ago

Nice one

Angel's Fear 1 week 5 days ago

Wow - this is breathtaking. Thank you!

Tenderness in the Air 2 weeks 17 hours ago

Awesome, favorited!

Reminiscence 2 weeks 3 days ago

[removed]

Overworld 2 weeks 3 days ago

i can't say which i like better but i did always want the intro to ring throughout. im interested in how else you've changed the tab. can you send me a link at [email protected]

Troian Beauty 2 weeks 6 days ago

Nice execution

Forest of Cutting Shadows 2 weeks 6 days ago

Great job congratulations

Drowned Valley 3 weeks 2 min ago

So I was thinking about that intro. It's essentially supposed to be a harp, which means trying to play it as "harp-style" on the guitar as you can, which means letting the notes ring out as long as possible. So I came up with the following. It is the exact same notes, but played on different strings. I like the first two notes as natural harmonics on the 12th fret, but they CAN be fretted (but can sound REAL bad if your intonation isn't perfect). Let me know what y'all think.

--------0--------------------
-----------0-------0------------
<12>-------7-------0------0----
---<12>-------7-------7-------0--
----------------------------7------
-----------------------------

For maximum effect, I recommend waiting until the last second to add or remove fretted noted with your fingers. This means you're never really making a chord shape, it'd feel more like lead guitar for your left hand.

Also, I made a few other changes to my own version that I just personally like that don't change much, so if you want a TAB of my version just for to compare or whatever, I can email it to whoever may inquire.

I really, really love these arrangements Kabuki Bear. Thank you so much for sharing them. I grabbed a few other ones you've done. They are some of the best I've seen.

Troian Beauty 3 weeks 5 days ago

This is awesome! I thank you for taking the time out of your day to make this!

Oh Wilfre! 3 weeks 5 days ago

WARK!!!

Mambo de Chocobo 4 weeks 2 days ago

... not everyone has a 6 string bass lying around. It's fairly easy to figure out the patterns on a 4 string however. It's basically a whole bunch of power chord shapes (with root octave) with its notes being plucked in an ascending fashion (with few exceptions).

Lets just take the first bar that's repeated the most. The root note of that bar is the 13th fret on the B string, so C.

Now for 4 string basses with this song instead of playing mostly vertically on one section of the neck (with a 6 string you can stay in the same section between the 10th and 15th fret), you're going to have to instead utilize more of the horizontal length of the neck, from the 3rd to the 13th fret. So in this case for this song, you're using almost double the fretted areas - 6 string has notes across 6 frets, 4 string has notes across 11.

This may seem daunting but once you see how the song is patterned it will start to make sense.

So start at the C note on the 3rd fret of your 4 string's A string. You'll be plucking the C, D#, F, G#, then G power chord shapes just going up the same 3 strings. For a potentially easier way of playing you can also start at the 8th fret on E string and then move up to the 6th fret on the A string for the second chord shape.

So you'll notice that from these movements you're going from 3rd fret > 6th fret > 8th fret > 11th fret > 10th fret. This is essentially the pattern of the whole song, but shifted based on where your starting note is. So you're basically going (start > 3 half steps up > 2 half steps up > 3 half steps up > 1 half step down). Also, don't forget about the difference in the final chord shape - the "middle" note isn't plucked.

Now, the final three bars looks different but is still played the same with some variation (third power chord shape is played descending, and final bar has an ending flourish). But keep in mind it will not sound totally accurate just from the basis of it being played on a instrument with 50% less strings, but all the notes will be accurate - just not at the same octaves and not truly in a climbing fashion like from a 6 string would do it. This has more do to with the thickness of the string affecting the note being played, as there's more back and forth on the 4 string. The notes however will sound perfectly ascending.

Then just work on your speed and accuracy...

Battle with Ganon 4 weeks 2 days ago

E|-------------------2-------|-------------------------2------|-------------------------------------|
B|------0------------0-------|------0---0--------------0------|---------0-----------------0---------|
G|------0----------------4---|------0---0-------4---0------0--|---------0-----------------0------0--|
D|-2--------2--------0-------|-2--------2--------------1------|-2---2-------2----------------4------|
A|--------------2------------|--------------2-----------------|-------------0-----2-----------------|
D|---------------------------|--------------------------------|----------------5------5-------------|


E|----------------2------2-----------|--------------------------------|-----------------------2---|
B|---------1---1---------0-----------|------0-------------------------|------0---0--------4-------|
G|-------------0-------------2-------|------0------2--0-------4-------|------0---0--------4-------|
D|-----2---------------------2---4---|-2--------2----------4-------4--|-2--------2--------2-------|
A|-3-----------0-----3---------------|----------------2---------------|--------------2------------|
D|-----------------------------------|--------------------------------|---------------------------|


E|-3----------------------3-------|------3-----------2-----------|------0--3---0----------2--7----|
B|------0---------0------------0--|------1-----------0-----------|-0-----------0-------4----------|
G|------0------2-------2--4-------|----------0-----------2---0---|-------------0-------------4----|
D|-2--------2---------------------|------------------------------|-2-------2-------4--------------|
A|----------------2---------------|-3--------3---3---------------|--------------------------------|
D|--------------------------------|------------------------------|------2-------------------------|


E|-------------0---2------2--3------0--|----------0-3---0-----0----------3--2------|
B|-0-------0---0---0---------4------0--|-0------0-------0-----1----------1--0---1--|
G|-0-------0---0----------4--4--2---0--|-------------------0------0----0--------0--|
D|-2-------2-------1---1--------4------|-2----------2----------------2-------------|
A|---------------------2---------------|-------------------------------------------|
D|------2------------------------------|-----2-------------------------------------|


E|---------------3--------2-----2--7-------|------0--3---0-------------2----|---------0--3--0--------2--3--2---3--|
B|-0---------0---3--------4-----4----------|-0----0------0-------4-----4----|-0-------0-----0---4----4------------|
G|-0------0---------4--------4-------------|-0-----------0----------4--4----|-0-------------0--------4------------|
D|-0---2---------------4-------------------|---------2-------4------4-------|------2------------------------------|
A|-----------------------------------------|-----------------2---------2----|-------------------------------------|
D|---------------------------------0---0---|-2------------------------------|-2----------2------------------------|


E|-----0-----3---5--3-----------3--2-----3--|-----0------------2-------2--7----|---------------------------------------------|
B|-0------0------------1--------1-----1-----|-0------3--0---0-----4----4-------|---------------------------------0-----------|
G|----------------------------0-------------|-0------0------0-------------4----|---------------------------------------2--0--|
D|-2-------------------2----2---------2-----|-0-------------0------------------|-2--2--2--2--0--0--1------2------------------|
A|---------------------3--------------------|---------------------2------------|---------------------------------------------|
D|------------------------------------------|----------------------------------|-------------------2--2---2---2--0--0--0--0--|


E|---------------------------------------------|---------------------------------------0--2--|
B|-0---------0-----------0---------0-----------|------------------------------------3--2-----|
G|---------------------------------------------|-2---------2-----------2---------2-----------|
D|-----------2-----------1---------1-----------|-0---------0---------------------4-----------|
A|--------------0------------------2--0--------|-----------0--------0--4--0---0--4-----------|
D|-2---2--2--------5--4-----4---4--------5--4--|-0---0--0-----5--4---------------------------|


E|-3-----------------------------------------|-----------3--3--5--7-------------------2--|
B|-------------------------------------------|--------0-----1---------0---0-----0-----0--|
G|-0---------------2--0--2---------2---------|-----0----------------------------2--0-----|
D|--------------2-----2--0--4---2--0--0------|-----------0------------1---1--2--1-----1--|
A|-3---3--3----------------------------------|-2----------------------2------------------|
D|-----------5--4--2--0-----0---0-----5--4---|-------------------------------------------|


E|-3-------------------2-------------------|--------------------------------0--2--|
B|-5---------------------------------------|-0-------------0----------------------|
G|---------------2--0--2-------------------|-0-------0--------4--2----------------|
D|---------------------1----2--------4-----|-0---2---------------2----2--0--------|
A|---------2--0----------------2--0--------|---------0-----------0----------4-----|
D|-----0-----------------------------5--4--|-----0------5--4----------------------|


E|-3-------------------2------0------------|---------------------2------------|-------------|
B|-5--------------------------------3------|-0----------1-----0--0------------|-------------|
G|-5-------------2--0--2-------------------|-0---4---0-----2------------------|-4-----------|
D|---------------------1-------------------|---------0-----------1----0---0---|-2-----------|
A|-----3-------------------------0---------|------------------2---------------|-------------|
D|---------5--4--2--0------0--------5--4---|----------------------------------|-------------|


Oh Wilfre! 4 weeks 3 days ago
E|-5------------------|---------------------------------|-5----5----------------------|
B|--------------------|---------------------------------|-----------------------------|
G|--------------------|-2---------------------2---------|-2----2----2-----------------|
D|--------------------|---------------------------------|-----------2-----------------|
A|-0------0-----0-----|-0----0----0-----0-----0---0-----|-0---------0-----0-----0-----|
D|--------------------|---------------------------------|-----------------------------|


E|-------------------------------------|-------------------------|--------------------------------|
B|-1-----1--------3--------------------|-------------------------|--------------------------------|
G|-2---------2---------2---------2-----|-------------------------|-2----2-------------------------|
D|----------------0--------------------|-------------------------|-2----2-------------------------|
A|-3-----3---0---------3----2----0-----|-0-----0-----0-----0-----|-0----0-------0-----0-----0-----|
D|-------------------------------------|-------------------------|--------------------------------|


E|-0-----0--------1----0---------------|-3-----3--------5----3----1--------------|
B|--------------------------3----------|-----------------------------------------|
G|-2---------2---------2---------2-----|-------------------------------2---------|
D|-2-----2--------3----2----0----------|-------------------------------2---2-----|
A|-0---------0---------0---------0-----|-0---------0---------0---------0---------|
D|-------------------------------------|-----------------------------------------|


E|-0------------------|--------------------|--------------------|--------------------------------|
B|-2------------------|-1------------------|--------------------|--------------------------------|
G|-2------------------|-2------------------|-2------------------|-2----2-------------------------|
D|--------------------|--------------------|-2------------------|-2----2-------------------------|
A|-0------0-----0-----|-3------0-----0-----|-0------0-----0-----|-0----0-------0-----0-----0-----|
D|--------------------|--------------------|--------------------|--------------------------------|


E|-------------------------|--------------------------------|--------------------|
B|-------------------------|--------------------------------|--------------------|
G|-------------------------|-2-----2------------------------|-2------------------|
D|-------------------------|-------------2------------------|-3------------------|
A|-0-----0-----0-----0-----|-0-----0-----0-----0---0---0----|-0------0-----0-----|
D|-------------------------|--------------------------------|--------------------|


E|-----------------------------|--------------------|------------------------------------|
B|-----------------------------|--------------------|-3---3-----3------------------------|
G|-------------2---------------|-2------------------|-2---------2-----2------------------|
D|-----------------------------|--------------------|-----------------------2---2---2----|
A|-0-----0-----0---------------|-0------0-----0-----|-0---------0-----0-----0------------|
D|-------------2-----2---2-----|-0------------------|------------------------------------|


E|-5------------------|-------------------0---0-----|5----5------------------|-------------------------------------|
B|--------------------|-----------------------------|-------------------------|1-----1--------3----1---------------|
G|-2------------------|-----------------------------|-------------------------|2---------2---------2---------2-----|
D|--------------------|-----------------------------|-------------------------|---------------0--------------------|
A|-0------0-----0-----|-0-----0-----0-----0---------|-0-----------0-----0-----|3-----3---0---------3----2----0-----|
D|--------------------|-----------------------------|-------------------------|------------------------------------|


E|-------------------------|-------------------------|--------------------|--------------------|
B|-------------------------|-------------------------|-1------------------|-3------------------|
G|-------------------------|-------------------------|-2------------------|-2------------------|
D|-------------------------|-------------------------|-3------------------|-3------------------|
A|-0-----0-----0-----0-----|-0-----0-----0-----0-----|-0------0-----0-----|-0------0-----0-----|
D|-------------------------|-------------------------|--------------------|--------------------|


E|---------------------------------|---------------------------------|--------------|
B|-----------------0-----0---------|-1-----1---------3-----3---------|-10-----------|
G|-2-----2-------------------------|-0-----0---------2-----2---------|-9------------|
D|-2-----2---------4-----4---------|-----------------0-----0---------|-7------------|
A|-0-----0---------2-----2---------|-3-----3-------------------------|-0------------|
D|---------------------------------|---------------------------------|--------------|
Encounter 4 weeks 4 days ago

I have used this tab to play my own version.
Can check the result on youtube, thanks.

https://www.youtube.com/watch?v=M1vo_Utx8s0

Terra (Blitzwater version) 4 weeks 6 days ago

If it's a note connected to the same note, then it is probably a tied note, meaning you continue holding that note over the next beat.

If it goes to a different note, I would have to see the context of what is happening. Do you have a specific tab(s) that you were trying to play?

The Ultimate Guitar Tab Symbols Guide 5 weeks 3 days ago

this tab is sick, the rhythm was tricky at first but its really fun to play. i have trouble bending fret 17 to the correct note in section c'. i have a really cheap classical guitar which i know makes it harder but i wanted someone else's opinion on that specific part. if i could play that part smoothly i'd be down to make a recording for this tab.

Passion for Exploring 5 weeks 4 days ago

What does ( mean in guitar tab but this symbol is facing up or down from one note to another or multiple notes. Example connecting 3 to 3 or 0 to 0 to 0 or 2 to 0.

The Ultimate Guitar Tab Symbols Guide 5 weeks 4 days ago

Thnk

"Scarlet Night" a Castlevania (1986-1996) Tribute Album 5 weeks 5 days ago

nice article

"Treetop Tunes" a DKC Tribute Album 5 weeks 5 days ago

Really nice. is there a tab?

Eternal Wind 5 weeks 5 days ago

i think i should have changed the tempo to 60 bpm

Dean_Reano have done the tabs of the arrangement, so i put them here

   E   E   E   E   E   E   E   E     E   E   E   E   X X X X S   E   E   E     E   E   E   E   E   E   E   E
E|-----------------3-------1-------|-0-----------------------0-----------0---|-0-------------------------------|
B|-1-------------------------------|-1-------1-------------1---------1-------|-----1---------------3---0-------|
G|---------2---------------0-------|---------2-----------2-------2-----------|---------2-------0-----------0---|
D|-----2---------------0-----------|-----2-------2-----2---------------------|-------------0-----------2---0---|
A|-0-----------3---2---------------|-0---------------0-----------------------|-3---------------2---------------|
E|-----------------------------3---|-----------------------------------------|-----------------------------3---|

                        [n]
   E   E   E   E   X X X E   E   E   E     E   E   E   E   E   E   E   E     E   E   E   E   E   E   E   E
E|-----------------------1-----------1---|-1---0-----------------------0---|-3---1---0-------0---------------|
B|---------3-----------3---------3-------|-------------1---0---1---3-------|-------------3---0---------------|
G|-2-----------2-----2-------2-----------|-2---------------2-------0-------|---------------------------------|
D|---------0-------3---------------------|-------------2-------3---2---3---|-2-----------------------2-------|
A|-----0---------------------------------|-0---2---3-------------------3---|-----3---2---3-------2-------2---|
E|-1-------------------------------------|---------------------------------|-3---1---0---1---0---------------|

   E   E   E   E   E   E   E   E     E   E   E   E   E   Q    E     E   E   E   E   E   E   E   E
E|-----0-------------------0-------|-0---3---1---0-------0----1---|-0-------------------------------|
B|---------1-----------1-------1---|-----------------3------------|---------3-----------------------|
G|-1-------0-------0---------------|------------------------------|-----2---0---2-------0-------0---|
D|-------------2-------------------|-------------0----------------|-2---------------3-------2-------|
A|---------3-----------------------|-1---------------3--------1---|---------------------------------|
E|---------------------------------|------------------------------|---------------------------------|

   H.     Q      E   E   E   E   E   E   E   E     E   E   E   E   X X X X S   E   E   E
E|-------------|-----------------3-------1-------|-0-----------------------0-----------0---|
B|-------------|-1-------------------------------|-1-------1-------------1---------1-------|
G|-------------|---------2---------------0-------|---------2-----------2-------2-----------|
D|-0------2----|-----2---------------0-----------|-----2-------2-----2---------------------|
A|-0-----------|-0-----------3---2---------------|-0---------------0-----------------------|
E|-------------|-----------------------------3---|-----------------------------------------|

                                                          [n]
   E   E   E   E   E   E   E   E     E   E   E   E   X X X E   E   E   E     E   E   E   E   E   E   E   E 
E|-0-------------------------------|-----------------------1-----------1---|-1---0-----------------------0---|
B|-----1---------------3---0-------|---------3-----------3---------3-------|-------------1---0---1---3-------|
G|---------2-------0-----------0---|-2-----------2-----2-------2-----------|-2---------------2-------0-------|
D|-------------0-----------2---0---|---------0-------3---------------------|-------------2-------3---2---3---|
A|-3---------------2---------------|-----0---------------------------------|-0---2---3-------------------3---|
E|-----------------------------3---|-1-------------------------------------|---------------------------------|

                                                                      [-n-]    [n] 
   E   E   E   E   E   E   E   E     E   E   E   E   E   E   E   E     T T E.   T E   E   Q    Q
E|-3---1---0-------0---------------|-----0-------------------0-------|--------------------0---------|
B|-------------3---0---------------|---------1-----------1-------1---|-----3------0---1--------3----|
G|---------------------------------|-1-------0-------0---------------|---2--------------------------|
D|-2-----------------------2-------|-------------2-------------------|-2----------------------------|
A|-----3---2---3-------2-------2---|---------3-----------------------|-0----------------------------|
E|-3---1---0---1---0---------------|---------------------------------|------------------------------|

   H     H       Q    Q    Q    Q      Q    H.       Q    Q    Q    Q      Q    Q    Q    Q 
E|-------------|---------<15<--<13>--|<12>---------|<12>-----------------|---------------------|
B|-------0-----|<13>-----------------|-----<13>----|---------------------|----------<12>-------|
G|-1-----------|---------------------|-------------|----------<12>-------|-----<19>-------<12>-|
D|-------------|-----<19>------------|-------------|-----<19>------------|<19>-----------------|
A|-------------|-0-------------------|-0-----------|---------------<19>--|-0-------------------|
E|-------------|---------------------|-------------|-1-------------------|---------------------|

   W
E|--------|
B|--------|
G|--------|
D|<19>----|
A|-0------|
E|--------|
Hold back your tears 6 weeks 3 days ago

Awesome!! One of my all-time favorite songs and least recognized from CC. Great playing and brilliant arrangement. Really just makes ya wanna shake that lizard tail

Lizard Dance 6 weeks 4 days ago

i would change the bass to be:

E||-----------------------|-----------------------|------------------------ |
B||-----------------------|-----------------------|----------------2--L-- |
G||-----------------------|--2--------------------|-----------4---------- |
D||----2----4---5---4--L|------5---4--L-----|--------------------|
A||-----------------------|---------------------|----------------------|
E||--0--------------------|-----------------------|--0-------------------|


  H        Q    Q       Q    H        Q       Q    Q    Q    Q     
---------------------|---------------------|----------------------|
--3--------2---------|--2------------------|----------------------|
----------------2----|-------4-------------|-----------------0----|
---------------------|---------------------|-------0----2---------|
---------------------|---------------------|--2-------------------|
---------------------|----------------0----|----------------------|


  Q    Q.     Q    E     Q    Q    Q    Q       Q    H.            
----------------------|----------------------|--------------------|
----------------------|----------------------|--------------------|
--2-------------------|----------------------|--------------------|
-------4------2----L--|-------4----2----4----|--0----2------------|
----------------------|----------------------|--------------------|
----------------------|--0-------------------|--------------------|


                               
  W                       
-------------------|
-------------------|
-------------------|
--L----------------|
-------------------|
----------------0--|

everything else is great tho. Have a nice day

Halo Theme 6 weeks 5 days ago

"don't feed the troll" they advice so ... I won't ^^

You Are My Love 7 weeks 2 days ago

the tab looks good to me.

Nocturne 7 weeks 2 days ago

Wow noooooo stop loot tab from other :O

Ilia's Theme 7 weeks 2 days ago

Going by this vid, https://www.youtube.com/watch?v=SznnVAnkv3c&ab_channel=InfernalEntertain

the capo isn't needed. the notes match with no capo

Danny 9 weeks 1 day ago

Amazing how, years after years after years, you keep on bringing the good stuff to us!
Thanks for not letting us down ^^

Awake 9 weeks 5 days ago

this song is so cool. my favorite to play recently.

Hana Saku Machi no Waltz 10 weeks 3 days ago

@thedstring If you click the link from his video ( https://drive.google.com/file/d/1JNA0Bg-pnsbrmhz65aVtOHNeO2rVS40W/view ) you can download the PDF which has the complete annotation in both sheet and tab

I guess this tab is so good he had to make us work for it a little ( ;

Aerith's Theme 10 weeks 3 days ago

Wow very beautiful arrange!

Stay Alive 10 weeks 3 days ago

Ha! Can't believe I missed this one. Favorited

Houkiboshi 10 weeks 3 days ago

Probably one of my favorite tabs & songs ever : )

Last Wanderlust 10 weeks 5 days ago

Legendary. Do you have a Youtube channel or something?? Your arrangements are superb

Secret of the Forest 10 weeks 5 days ago

This feels like it's missing half of the tab.

Like, the chords are correct and in the correct order, but it sounds nothing like the recording from all the missing notes. This is like 60% of the real thing. I understand skipping notes to make an easier version, but it's missing so many important notes that would still make you recognize the original song.

Also the notes that should be played as harmonics are not noted as so.

I would love to have this fixed up as the recording linked at the top is kind of amazing.

Aerith's Theme 10 weeks 5 days ago

Beautiful playing <3

Aerith's Theme 11 weeks 16 hours ago

For the only Hollow Knight song on this darned website, this has got to be the easiest and best song ever!! Thank you so much for making it!!

Menu Theme 11 weeks 23 hours ago

Really good, this is one of my favorite pieces of FF music, I really need to learn it for mandolin someday.

Eternity, Memory of Lightwaves 11 weeks 2 days ago

As with pretty much every other one of your megaman tabs they're very on point although usually realll hard.

Needle Man 11 weeks 4 days ago

Very well played man, and cool build up too :)

But The Earth Refused To Die 11 weeks 5 days ago

it's pretty cool version for beginner! thanks you!

Main Theme 11 weeks 5 days ago

should space the frets instead of leaving them together like this. hard to read.

Rain 11 weeks 6 days ago

I haven't had much time to play with AWS yet but I'm assuming the folder needs to be re-uploaded because the "Download Files" permission didn't apply correctly.

Via Purifico 12 weeks 6 days ago