Ads

If I were a Bird (Code Geass) Guitar Tab

Submitted: Dec 01, 2014 by kakesama

4.5
Average: 4.5 (6 votes)
Download | Listen
Game: Code Geass
Composer(s): Hitomi Kuroishi
Style: Arrangement, Fingerstyle

AutoScroll: Slow | Medium | Fast
Name of song: If I were a bird
Game/Anime: Code Geass
Composer: Kotaro Nakagawa 
Tabber: Kakesama
29.11.2014


E|----------------7----|------5--------------|----------------5----|------3--------------|
B|-3----5---------5----|------7---------7----|---------------------|------0---------3----|
G|-----------0----5----|---------------------|------7--------------|---------------------|
D|---------------------|------0----7---------|-----------7---------|------2--------------|
A|------3--------------|---------------------|---------------------|---------------------|
E|---------------------|---------------------|------7--------------|---------------------|


E|------0----3----7----|-5-------------------|---------------------|-5-----------|
B|-1-------------------|-7-------------------|---------------------|-------------|
G|---------------------|-----------7---------|-7-------------------|-------------|
D|------2--------------|-0-------------------|-5----0----5----7----|-------------|
A|-3-------------------|---------------------|---------------------|-------------|
E|---------------------|---------------------|---------------------|-------------|


E|-0---------7---------|-5---------10--------|---------------------|-------------|
B|---------------------|-----------10--------|-10--------7---------|-8-----------|
G|------0---------5----|------2--------------|-----------7---------|-------------|
D|---------------------|-0-------------------|---------------------|-------------|
A|-3-------------------|---------------------|------9--------------|-------------|
E|---------------------|---------------------|-7-------------------|-0-----------|


E|---------------------|-7----5---------2----|------3--------------|---------------------|
B|-7----5---------5----|---------------------|---------------------|---------------------|
G|-----------5---------|-----------2---------|----------------0----|---------------------|
D|---------------------|------0--------------|-----------0---------|---------------------|
A|------3--------------|---------------------|---------------------|---------------------|
E|---------------------|---------------------|------3--------------|------3--------------|


E|------3---------7----|-5----2----2---------|-5----3--------------|-----------0----3----|
B|-3----1--------------|-----------3---------|------0--------------|-3----1--------------|
G|-----------0---------|-2-------------------|---------------------|----------------0----|
D|---------------------|---------------------|---------------------|-----------2---------|
A|------3--------------|-----------2---------|---------------------|------3--------------|
E|---------------------|---------------------|------0--------------|---------------------|


E|-7----5---------2----|---------------------|---------------------|-0---------7---------|
B|---------------------|------3--------------|------0---------3----|-----------8---------|
G|-----------2---------|------4---------0----|-2-------------------|------0--------------|
D|------0--------------|-----------0---------|---------------------|---------------------|
A|---------------------|---------------------|---------------------|-3-------------------|
E|---------------------|------3--------------|---------------------|---------------------|


E|-5---------10--------|---------------------|-3---------2----0----|------0----7----5----|
B|-----------10--------|-10--------7---------|---------------------|-1-------------------|
G|------2--------------|---------------------|---------------------|---------------------|
D|-0-------------------|-7-------------------|---------------------|---------------------|
A|---------------------|------9--------------|----------------3----|----------------0----|
E|---------------------|---------------------|-0-------------------|---------------------|


E|-----------3---------|---------------------|------3----0---------|-7---------5---------|
B|------7--------------|------1----0---------|-1---------1---------|-----------7---------|
G|---------------------|-0--------------0----|----------------0----|----------------2----|
D|----------------0----|---------------------|---------------------|-----------0---------|
A|---------------------|---------------------|-----------3---------|---------------------|
E|-----------3---------|---------------------|---------------------|---------------------|


E|---------------------|-5---------3---------|-7----8----7----3----|-0----3---------7----|
B|-1---------3---------|-----------5---------|---------------------|---------------------|
G|---------------------|-----------0---------|----------------0----|-----------2---------|
D|-----------2---------|-0-------------------|---------------------|------0--------------|
A|----------------2----|---------------------|------0----7---------|---------------------|
E|---------------------|---------------------|---------------------|---------------------|


E|-3----7--------------|----------------7----|-5----0---------7----|------5--------------|
B|---------------------|-3---------0---------|---------------------|----------------1----|
G|----------------0----|---------------------|-----------0---------|-----------2---------|
D|-----------0---------|------3--------------|---------------------|------0--------------|
A|---------------------|---------------------|------3--------------|---------------------|
E|------3--------------|---------------------|---------------------|---------------------|


E|------10--------5----|------3---------2----|-0---------0----7----|-5---------2----0----|
B|---------------------|------0--------------|------1--------------|----------------0----|
G|---------------------|---------------------|-----------0---------|------0--------------|
D|----------------0----|---------------------|---------------------|-0-------------------|
A|-----------9---------|---------------------|-0-------------------|---------------------|
E|------7--------------|------0--------------|---------------------|----------------0----|


E|----------------12---|
B|-----------0---------|
G|---------------------|
D|------2--------------|
A|-2-------------------|
E|---------------------|


Login or Register to remove this ad.

4 comments on If I were a Bird

Notes are accurate.

Nice work and thanks for this. The measures are divided up in a confusing way, but it's easy to parse out if you just listen to the recording and work out where the first beat of each measure actually is.

Kind of a noob

It was my first time using a program like guitar pro.. so I'm kind of new at it :3 but I'll try to make it less confusing when I start to get the hang of it.

Midi files

Good thing the recording works btw. I can't play midi files on my computer for some reason? :S

Thanks

thanks this is really Great