Ads

Nagisa ~ Farewell at the Foot of a Hill (Clannad) Guitar Tab

Submitted: May 10, 2014 by Basisti94

4.7
Average: 4.7 (10 votes)
Download | Listen
Game: Clannad
Composer(s): Jun Maeda
Style: Arrangement, Fingerstyle, Tapped harmonics

This song is also called Nagisa ~ Saka no Shita no Wakare

AutoScroll: Slow | Medium | Fast
                   Nagisa ~ Farewell at the Foot of a Hill
                                
Clannad
Jun Maeda (arrangement by Tabibito)
Guitar arrangement by Basisti94 (Miro Laaksonen)
9.5.2014


----------------
This arrangement is based on the piano arrangement version found on
the -Memento- Clannad remix album. Due to general impossibleness I 
omitted the final part from my arrangement.
----------------

Tempo ~ 66
                  ^                                      
     Q    S S S S E  S E  E.     E  S E.  E  Q    E.  S  
E||--0----L-------3--8-7--3---|--5--0-------------------|
B||-----------1-3-------------|-------3---1--1----3---0-|
G||---------0-----0-----------|--------------0----------|
D||---------------------------|-------------------------|
A||--3----L-------------------|--------------0----2-----|
E||---------------0-----------|--1--------------------3-|
												
					        Tempo ~ 80
  S T  T H.           E     Q    Q    Q    E  E     Q    Q    E  E   
-------------------------|-----------------------|--0---------1--0--|
--L-1p-0-----------------|-----------------1--3--|-------1----------|
---------2------------L--|-----------------------|-------0----0-----|
---------2------------L--|--3----2---------------|-------2----2-----|
-------------------------|--3---------0----------|--3---------------|
--L------1------------L--|--3--------------------|------------------|


  Q    Q    E  E     Q    Q    Q       E  E  E  E  E  E     E  E  E  E  E  S S  
--0---------0-----|-----------------|--0-----------0--3--|--3-----------8----7-|
-------1-------1--|--3----1----1----|--------1--3--------|--------1--3---------|
-------2----2-----|-------1----1----|-----0--------------|---------------------|
-------3----3-----|-------0----0----|--------------------|-----2---------------|
------------------|-----------------|--3--------------2--|--0------------------|
--1---------------|--3--------------|--------------------|-----------------0---|


  E  E  E  E  E  E     E  E  E  E  E  S S    E  E  E  E  Q     
--7-----5--------3--|--1--------5--3------|--0----------------|
-----------5--3-----|--------1----------3-|-----------1-------|
-----5--------------|-----2---------------|--------0-----0----|
--3-----------------|--0--------------0---|-----2-------------|
--------------------|---------------------|--3----------------|
--------------------|--------------3------|-------------------|


  E  E  E  E  E  S S    E  E  E  E  E  E     E  E  E  E  E  E   
--0-----------1----0-|--0-----------0-----|--------------------|
--------1--3---------|--------1--------1--|--3-----1-----1-----|
---------------------|-----------2--------|--------1-----0-----|
-----2-----------2---|--------------------|-----0-----0-----0--|
--0------------------|-----3-----------3--|--------------------|
---------------------|--1-----------------|--3-----------------|


  E  E  E  E  E  E     E  E  E  E  E  E     E  E  E  E  Q     
--0--------0--------|--------------------|-------------------|
--------1-----------|--------------------|-------------------|
-----0--------0-----|--2-----------------|--2----------------|
-----------------2--|--------3-----2-----|--------0-----2----|
--3-----------------|-----3-----3-----0--|-----2-----2-------|
--------------------|--1-----------------|--3----------------|


                       ^    ^             ^                                    
  E  E  E  E  E  E     Q    Q    E  E     Q    Q    E  S S    Q    Q    E  E   
--------------------|-------0----------|-------------------|------------------|
--------0--1--------|--3----0----------|--2---------3----2-|--2---------2-----|
--2--------------2--|--2----1----------|--2----2----2------|-------2----2--2--|
-----2--------2-----|--0----2----2-----|--2----2-------2---|-------4----------|
--0-----------------|--2------------2--|--0----------------|--5---------------|
--------------------|------------------|-------------------|------------------|


  Q    Q    E.  S    E  E  E  E  E  E     Q    Q    E  S S  
------------------|-----------------0--|--5---------5----4-|
--0-------------0-|--2-----------2-----|-------2----2------|
-------2----2-----|--------2--------1--|-------2----2--2---|
--0----4----3-----|-----2-----2--------|-------4-----------|
-------0----0-----|--0-----------------|-------------------|
--0---------------|--------------------|--2----------------|


  E  E  E  E  E  E     E  E  E  E  E  S S    E  E  E  E  E  S S  
--4-----2-----------|--------------0------|---------------------|
--------------------|--3--------3-------0-|--3--2--2----------0-|
-----2-----2--------|--------2--------1---|--------2-----2------|
--0-----------0-----|-----0---------------|-----2-----2---------|
-----------------4--|--2------------------|--0------------------|
--------------------|--------------0------|-----------------3---|


  E  E  E  E  E  S S    E  E  E  E  E  E     E  E  E  E  E  E   
---------------------|--------0-----3-----|--0-----------0-----|
--1-----------1----0-|--1--------1--------|--------3-----------|
-----------2-----2---|--------0-----0--0--|-----------2--------|
--------3------------|-----2--------------|-----0--------------|
-----3---------------|--------------0-----|-----------------0--|
--1------------------|--0-----------------|--2-----------------|


                                                     ^          
  E  E  E  E  E   E      E  E  E  E   E   E     Q    Q.     E   
--7-----------0--10--|--10-----9-------------|-------5------4--|
-----------0---------|---------------12--10--|-------5---------|
---------------------|------9-----9----------|--6----6---------|
---------------------|-----------------------|--6--------------|
-----7--7------------|---0------------0------|--4----0---------|
--4-----------0------|-----------------------|-----------------|


  E  E  E  E  E  E     Q    Q    E  S S    E  E  E  E  E  E   
--4-----5-----------|--2----2----0----5-|--------------------|
--------------3--5--|-------------------|--3-----------------|
-----2-----2--------|---------------2---|--------4-----4-----|
--0-----------------|-------------------|-----4-----4-----0--|
--------------------|------------4------|--2-----------------|
--------------------|-------------------|--------------------|


                                            ^                                 
  E  E  E  E  E  E     E  E  E  E  E  E     H.              S S Q.     E  E   
--------------------|--------------------|---------------|------2------------|
--3-----2--------0--|--------------2-----|--7------------|----2--------------|
--------------0-----|--2-----------------|--4------------|--4-------------1--|
-----0-----0-----2--|--------4-----------|--4------------|-------------4-----|
--------------------|-----4-----4-----4--|--6------------|-------------------|
--3-----------------|--2-----------0-----|---------------|-------------------|


                        ^                                          
  H        Q    Q       H        H           H        E  E  E  E   
---------------------|--------------------|--------------0--5--7--|
----------------2----|--0-----------------|-----------------------|
--2--------2---------|--2--------2--------|--L--------------------|
--0------------------|--0-----------------|-----------------------|
--2------------------|--------------------|-----------------------|
---------------------|--0-----------------|--L--------------------|

Tempo ~ 72
  Q    E  E  E  E  E  E      E   E  Q     E  E  E  E   
--7----5--------5--7--9--|--12------9-----------5--7--|
----------7--------------|------12-------10-----------|
-------------------------|-------------------9--------|
--0----0-----0-----0-----|----------------------------|
-------------------------|----------------------------|
-------------------------|---9------9-----9-----0-----|


                        TH                                     
  Q    E  E  E  E  E    E      E   E   E   E   E   E   E   E   
--7----5--------7--4--<>4--|--12------------------------------|
----------7--6-------------|----------10--------------10--12--|
---------------------------|------------------12--------------|
--0----0-----------3-------|------11------11------12----------|
-------------4-------------|---9-----------------------0------|
---------------------------|----------------------------------|


                                                        ^         ^           
  Q    E  E  E  E  E  E      E   E  E  E   Q    Q       Q.     E  Q    E  E   
--7----5--------5--7--9--|--12------9----------------|--2------2--4----5--4--|
----------7--------------|------12-----9--10----9----|--3---------3----------|
-------------------------|---------------------------|--2--------------------|
--0----0-----0-----0-----|---------------------------|--0--------------------|
-------------------------|-----------------9----7----|-----------------------|
-------------------------|---9------9----------------|------------0----------|


                                            TH         
  E  E  E  E  E  E  E  E     E  E  E   E    H          
--4--5--5--------------0--|--5--0--5--12--<>5--------||
-----------------0--2-----|--------------------------||
--------------2-----------|--------------------------||
-----------2--------------|--------------------------||
--0-----------------------|--------------------------||
--------------------------|--------------------------||




Duration Legend
---------------
W - whole
H - half
Q - quarter
E - 8th
S - 16th
T - 32nd
X - 64th
. - note dotted
|-n-|  - n-tuplets


Tablature Legend
----------------
L - tied note
x - dead note
g - grace note
(n) - ghost note
> - accentuded note
NH - natural harmonic
AH - artificial harmonic
TH - tapped harmonic
SH - semi harmonic
PH - pitch harmonic
h - hammer on
p - pull off
b - bend
S - shift slide
s - legato slide
/ -  slide into from below or out of upwards
\ -  slide into from above or out of downwards
~ - vibrato
W - wide vibrato
tr - trill
TP - tremolo picking
T - tapping
S - slap
P - pop
< - fade in
^ - brush up
v - brush down
Login or Register to remove this ad.

5 comments on Nagisa ~ Farewell at the Foot of a Hill

Bravissimo

5

Wonderful! I believe this is the Warm Arrange version, so you might want to label it as such to not confuse peeps. Freaking AMAZING work though, really takes me to the bottom of the hill :)

Beautiful

5

I wanted to play this for such a long time and you did such a great job here. Thank you so much!

Absolutely amazing, I never

5

Absolutely amazing, I never expected anyone to tab this piece for guitar. Thanks for making this.

I wanna cry!!!! SO beautiful,

5

I wanna cry!!!! SO beautiful, keep it up!

I'm playing this every day,

I'm playing this every day, it's just wonderful!