Ads

Existence (Clannad) Guitar Tab

Submitted: Jul 31, 2014 by ltm_1988

5
Average: 5 (7 votes)
Download | Listen
Game: Clannad
Composer(s): Jun Maeda
Style: Arrangement, Fingerstyle

AutoScroll: Slow | Medium | Fast
Existence
Clannad
Magome Togoshi
ltm_1988
6/30/14


     E  E  E  E  E  E     Q     E  E  E  E     E  E  E  E  E  E    E  E  E  Q.      
E||--0-----------4-----|--4--------0--------|--4-----2--7--------|----------4--------|
B||o----4--0--2--------|--------2-----4-----|-----2--------7--2--|-5--4--0-----------|
G||--------------------|-----------------4--|--------------------|-------------------|
D||--------------------|--------------------|--------------------|-------------------|
A||o-4--------------4--|--2-----------------|-----------------4--|-2-----------------|
E||--------------4-----|--------------------|--4--------4--7-----|-------------------|

     E  E  E  E  Q        Q     E  E  E  E     E  E  E  E  E  E    E  E  E  Q.        
E||--0-----------4-----|--4--------0--------|--4-----2--7--------|-------2--------------|
B||-----4--0--2--------|--------2-----4-----|-----2--------7--2--|-4--------4-----------|
G||--------------------|-----------------4--|--------------------|----4-----------------|
D||--------------------|--------------------|--------------------|----------------------|
A||--4-----4-----4-----|--2-----2-----2-----|--0-----0-----4-----|-2--------2-----------|
E||--------------------|--------------------|--------------------|----------------------|

     E  E  E  E  E  E     E  E  E  Q.          Q     E  Q     E    E  E  E  E  Q       
E||--0--------4--2--0--|--0-----------------|-----------0--------|-------------------|
B||-----4--0-----------|-----4-----2--------|-----------2-----4--|-4-----------------|
G||--------------------|--------4-----------|-----------------4--|-4--------4--------|
D||--------------------|--------------------|--2-----------------|----------6--------|
A||--0--------0--------|--2--------2--------|--4--------4--------|-6--2--0-----2-----|
E||--------0-----------|--------2-----------|--------4--------4--|----------4--------|

     E  E  E  E  E  E     Q.       E  E  E     Q.       Q.         E  E  E  Q.        
E||--4-----------0--2--|--7~--p6p5p4--2--4--|--0-----------------|----------4-----------|
B||-----2--4--4--------|--------------------|-----------4--------|-2--0--2--------------|
G||--------------------|--------------------|--------------------|----------------------|
D||--------------------|--------------------|--------------------|----------------------|
A||--4--------0--------|-----------2--------|--4--------2--------|-1--------------------|
E||--5-----0-----0-----|--7-----------2-----|--------------------|----------------------|

     E  E  E  E  E  E     Q     E  E  Q        E  E  E  E  E  E    Q     E  E  E  E    
E||-----------0-----2--|--4-----0-----------|--4--0-----0--2--7--|-2-----0-----------|
B||--0--2--4-----0-----|-----------4--------|-----2--4--2--2--7--|-4-----2--4-----0--|
G||--------------------|--------------------|--------4-----------|----------4--------|
D||--------------------|--------2-----------|--------------------|-------2-----------|
A||--0-----------------|--2-----------------|--0-----------------|-2--------6--2-----|
E||--------0--0--0-----|-----------0--2-----|--------0--0--0-----|----------------4--|

     E  E  E  Q.          E  E  E  Q.          E  E  E  E  E  E    Q.       Q.  
E||--------4--2--------|-----2--5--4--------|--5-----5--9--7--5--|-4--------4-----------|
B||--0--2-----2--------|--4--------5--------|--5--3--------------|-4--------4----------o|
G||--------------------|--5-----------------|--------------------|----------------------|
D||--6-----------------|--------------------|--------------------|----------------------|
A||--------------------|--0-----------------|--5-----------------|-6-------------------o|
E||--4--------2--------|-----------4--------|--------5--10-------|----------4-----------|


  W   
--4-----------------------|-L------------------------|
--5-----------------------|-L------------------------|
--6-----------------------|-L------------------------|
--6-----------------------|-L------------------------|
--4-----------------------|-L------------------------|
--4-----------------------|-L------------------------|


Login or Register to remove this ad.

3 comments on Existence

Ha!

Tomoyo: "The only person I want you to lose to is me."

Great Job

5

Really well made, I recommend playing this with Capo on 4 though. A few bass notes might be lost, but it makes it 10 times easier to play

Yeah, it definitely needs

Yeah, it definitely needs capo on 4 and some rearranging of bass notes.