Dango Daikazoku (Clannad) Guitar Tab

Submitted: Nov 08, 2009 by yoshistrings (Last updated: Feb 06, 2010)

4.9
Average: 4.9 (10 votes)
Download | Listen
Game: Clannad
Composer(s): Jun Maeda
Style: Arrangement, Fingerstyle

AutoScroll: Slow | Medium | Fast
                            Dango Daikazoku                               


                                                  Arranged by Jackson Walsh
Track 1 (Capo 4)



     E  E  Q    Q    Q       Q    Q    Q    Q       E  E  Q    Q    Q     
E||--------0----0----2----|--2----4----0---------|--------0----0----2----|
B||--2--0-----------------|-----------------0----|--2--0-----------------|
G||-----------------------|----------------------|-----------------------|
D||-----------------------|----------------------|-----------------------|
A||-----------------------|----------------------|-----------------------|
E||-----------------------|----------------------|-----------------------|


  Q    Q    H           E  E  Q    Q    Q       Q    Q    Q    Q     
--2----4----2--------|--------0----0----2----|--2----4----0---------|
---------------------|--2--0-----------------|-----------------0----|
---------------------|-----------------------|----------------------|
---------------------|-----------------------|----------------------|
---------------------|-----------------------|----------------------|
---------------------|-----------------------|----------------------|


  E  E  Q    Q    E  E     W                   E  E  Q    Q    Q     
--------0----0----2--2--|--0----------------|--------0----0----2----|
--2--0------------------|-------------------|--2--0-----------------|
------------------------|-------------------|-----------------------|
------------------------|-------------------|-----------------------|
------------------------|-------------------|--0-----L----4----L----|
------------------------|-------------------|-----------------------|


  Q    Q    Q    Q       E  E  Q    Q    Q       Q    Q    H         
--2----4----0---------|--------0----0----2----|--2----4----2--------|
-----------------0----|--2--0-----------------|---------------------|
----------------------|-----------------------|---------------------|
----------------------|-----------------------|------------1--------|
------------4----L----|--0-----L----4----L----|---------------------|
--4----L--------------|-----------------------|--4----L-------------|


  E  E  Q    Q    Q       Q    Q    Q    Q       E  E  Q    Q    Q     
--------0----0----2----|--2----4----0---------|--------0----0----2----|
--2--0-----------------|-----------------0----|--2--0-----------------|
-----------------------|----------------------|-----------------------|
-----------------------|----------------------|-----------------------|
--0-----L----4----L----|------------4----L----|--0-----L----4----L----|
-----------------------|--4----L--------------|-----------------------|


  H        H           E  E  Q    Q    Q       Q    Q    Q    Q     
--0-----------------|--------0----0----2----|--2----4----0---------|
-----------0--------|--2--0-----------------|-----------------0----|
--------------------|-----------------------|----------------------|
--2-----------------|-----------------------|----------------------|
-----------2--------|--0-----L----4----L----|------------4----L----|
--------------------|-----------------------|--4----L--------------|


  E  E  Q    Q    Q       Q    Q    H           E  E  Q    Q    Q     
--------0----0----2----|--2----4----2--------|--------0----0----2----|
--2--0-----------------|---------------------|--2--0-----------------|
-----------------------|---------------------|-----------------------|
-----------------------|------------1--------|-----------------------|
--0-----L----4----L----|---------------------|--0-----L----4----L----|
-----------------------|--4----L-------------|-----------------------|


  Q    Q    Q    Q       E  E  Q    Q    Q       Q    Q    H         
--2----4----0---------|--------0----0----2----|--0------------------|
-----------------0----|--2--0-----------------|------------4--------|
----------------------|-----------------------|---------------------|
----------------------|-----------------------|--2------------------|
------------4----L----|--0-----L----4----L----|-------2----2--------|
--4----L--------------|-----------------------|---------------------|


  E  E  E  E  E  E  E  E     Q    Q    Q    Q     
--5--4--0--------0--2-----|--0--------------0----|
-----------2-----------2--|-------0----2---------|
--------------------------|----------------------|
--0--------L--4--------L--|--2----L--------------|
--------------------------|------------2----L----|
--------------------------|----------------------|


  E  E  E  E  E  E  E  E     Q    Q    Q    Q     
--5--4--0--------0--2-----|--0-------------------|
-----------2-----------2--|----------------------|
--------------------------|----------------------|
--------------2--------L--|--2--------------2----|
--4--------L--------------|-------2----4---------|
--------------------------|----------------------|


  E  E  E  E  E  E  E  E     Q    Q    Q    Q       Q.     E  Q    E  E   
--5--4--0--------0--2-----|--0--------------0----|---------0-------------|
-----------2-----------2--|-------0----2---------|--0--------------------|
--------------------------|----------------------|------------2----L--2--|
--0--------L--4--------L--|--2---------L---------|-----------------------|
--------------------------|------------2----L----|--4--------------------|
--------------------------|----------------------|-----------------------|


  E  E  E  E  E  E  E  E     Q    E  E  E  E  E  E   
--------------------0--2--|--2----0--------0--2--4--|
--0-----0--------0--------|----------2--------------|
-----2-----2--------------|-------------------------|
--------------4--------L--|-------------2--------L--|
--------------2--------L--|--0-------L--------------|
--------------2--------L--|-------------------------|


  E  E  Q    E  E  E  E     Q    E  E  E  E  E  E   
--7--2--4----0-----0--2--|--2----0--------2--0--7--|
----------------0--------|----------2--------------|
-------------------------|-------------------------|
-------------------------|-------------------------|
-------------2--L--------|--0-------L--4--------L--|
--4-----L----------4--L--|-------------------------|


  H        E  E  E  E     Q    E  E  E  E  E  E     E  E  Q    Q    Q     
--4--------------0--2--|--2----0--------0--2--4--|--7--2--4----0---------|
--------------0--------|----------2--------------|------------------4----|
-----------------------|-------------------------|-----------------------|
-----------4--------L--|-------------2--------L--|-----------------------|
-----------2--------L--|--0-------L--------------|-------------4----2----|
--4--------2--------L--|-------------------------|--4-----L--------------|


  E  E  E  E  Q    E  E     E  E  Q    E  E  E  E   
-------------------0-----|-----0--L----------0--2--|
--2--------2--4-------4--|----------------0--------|
--------2----------------|-------------------------|
-----2-------------------|--------2----4--------L--|
--0--------L--2-------L--|-----2-------2--------L--|
-------------------------|--0----------2--------L--|


  Q    E  E  E  E  E  E     E  E  Q    E  E  E  E   
--2----0--------0--2--4--|--7--2--4----0-----0--2--|
----------2--------------|----------------0--------|
-------------------------|-------------------------|
-------------2--------L--|-------------------------|
--0-------L--------------|-------------2--L--------|
-------------------------|--4-----L----------4--L--|


  Q    E  E  E  E  E  E     H        E  E  E  E   
--2----0--------2--0--7--|--4--------------0--2--|
----------2--------------|--------------0--------|
-------------------------|-----------------------|
-------------------------|-----------4--------L--|
--0-------L--4--------L--|-----------2--------L--|
-------------------------|--4--------2--------L--|


  Q    E  E  E  E  E  E     E  E  Q    Q    Q     
--2----0--------0--2--4--|--7--2--4----0---------|
----------2--------------|------------------4----|
-------------------------|-----------------------|
-------------2--------L--|-----------------------|
--0-------L--------------|-------------4----2----|
-------------------------|--4-----L--------------|


  E  E  E  E  Q    E  E     E  E  E  E  H           E  E  Q    Q    Q     
-------------------0-----|-----0-----------------|--------0----0----2----|
--2--------2--4-------4--|-----------------------|--2--0-----------------|
--------2----------------|-----------1-----------|-----------------------|
-----2-------------------|--------2-----2--------|-----------------------|
--0--------L--2-------L--|-----2-----------------|-----------------------|
-------------------------|--0-----------L--------|-----------------------|


  Q    Q    Q    Q       E  E  Q    Q    Q       Q    Q    H         
--2----4----0---------|--------0----0----2----|--2----4----2--------|
-----------------0----|--2--0-----------------|---------------------|
----------------------|-----------------------|---------------------|
----------------------|-----------------------|---------------------|
----------------------|-----------------------|---------------------|
----------------------|-----------------------|---------------------|


  E  E  Q    Q    Q       Q    Q    Q    Q       E  E  Q    Q    E  E   
--------0----0----2----|--2----4----0---------|--------0----0----2--2--|
--2--0-----------------|-----------------0----|--2--0------------------|
-----------------------|----------------------|------------------------|
-----------------------|----------------------|------------------------|
-----------------------|----------------------|------------------------|
-----------------------|----------------------|------------------------|


  W                  
--0----------------||
-------------------||
-------------------||
-------------------||
-------------------||
-------------------||




Duration Legend
---------------
W - whole
H - half
Q - quarter
E - 8th
S - 16th
T - 32nd
X - 64th
. - note dotted
|-n-|  - n-tuplets


Tablature Legend
----------------
L - tied note
x - dead note
g - grace note
(n) - ghost note
> - accentuded note
NH - natural harmonic
AH - artificial harmonic
TH - tapped harmonic
SH - semi harmonic
PH - pitch harmonic
h - hammer on
p - pull off
b - bend
br - bendRelease
pb - preBend
pbr - preBendRelease
brb - bendReleaseBend
\n/ - tremolo bar dip
\n - tremolo bar dive
-/n - tremolo bar Release up
/n\ - tremolo bar inverted dip
/n - tremolo bar return
-\n - tremolo bar Release down
S - shift slide
s - legato slide
/ -  slide into from below or out of upwards
\ -  slide into from above or out of downwards
~ - vibrato
W - wide vibrato
tr - trill
TP - tremolo picking
T - tapping
S - slap
P - pop
Login or Register to remove this ad.

4 comments on Dango Daikazoku

Wow.

5

Just... Beautiful.

awesome. can you add the

5

awesome. can you add the instrumental that's at the end? would be epic

I LOVE your arrangement

5

I LOVE your arrangement !!
I'll try to learn it as soon as I can :D

Many times more epic than the

Many times more epic than the anime version :P