Ads

Étude Pour les Petites Supercordes (Clannad) Guitar Tab

Submitted: Jul 15, 2013 by Basisti94

5
Average: 5 (7 votes)
Download | Listen
Game: Clannad
Composer(s): Jun Maeda
Style: Arrangement, Fingerstyle

This song is also called Kotomi's Theme, Étude for Small Superstrings

AutoScroll: Slow | Medium | Fast
                     Etude Pour les Petites Supercordes (Kotomi's Theme)
                                
Clannad
Jun Maeda
Guitar arrangement by Basisti94 (Miro Laaksonen)
13.7.2013

Kotomi is my waifu


Drop D tuning

Tempo ~ 115
               
     E  E  E  E  E  E  E  E     E  E  E  E  E  E  E  E   
E||--0--1--------------------|--------------------------|
B||--------1-----3-----1-----|--------------------------|
G||--2--------2--------------|--2--------0--2-----0-----|
D||--3-----------0-----2-----|--0-----3-----------------|
A||--------------------3-----|--1-----------3-----------|
D||--------------------------|--------------------------|


                                                        ^                     
  E  E  E  E  E  E  E  E     E  E  E  E  E  E  E  E     H        E  E  E  E   
--0--1--------------------|--------------------------|-----------------------|
--------1-----3-----1-----|--------------------------|-----------------------|
--2--------2--------------|--2--------0--2-----0-----|--------------------2--|
--3-----------0-----2-----|--0-----3-----------------|--0--------L--0--0-----|
--------------------3-----|--1-----------3-----------|--0--------------------|
--------------------------|--------------------------|--0--------0-----------|


  E  E  E  E  Q    Q       E  E  E  E  Q    E  E     Q    E  E  E  E  Q     
------------------------|-------------------------|------------------------|
------------------------|--1----------------------|------------------------|
--2--------2--2---------|-----3--2--3--0-------2--|-------------------0----|
-----0--0---------------|-------------------------|--2-------2--2--3-------|
-------------------3----|--1-----------3----3-----|--0----0-----3-----3----|
------------------------|-------------------------|------------------------|


        ^                                                                 
  E  E  Q.     E  E  E     E  E  E  E  Q    Q       Q    E  E  Q.     E   
------------------------|------------------------|-----------------------|
------------------------|------------------------|-------1--3--5------6--|
--------2------------2--|--2--------2--2---------|-----------------------|
--------0------0--0-----|-----0--0---------------|-----------------------|
-----0--0---------------|-------------------3----|--1----------3---------|
--0-----0---------------|------------------------|-----------------------|


  Q.     E  E  E  Q       E  E  E  E  E  E  E  E     E  E  E  E  Q    Q     
-----------------------|--------------------------|------------------------|
---------------1-------|--------------------------|------------------------|
--2------2--0-----2----|--------0--2--2--------2--|--2--------2--2---------|
-----------------------|--------0--------0--0-----|-----0--0---------------|
--0---------3----------|-----0--------------------|-------------------3----|
-----------------------|--0-----------------------|------------------------|


                                                           ^                
  E  E  E  E  Q    E  E     Q    E  E  E  E  Q       E  E  Q.     E  E  E   
-------------------------|------------------------|------------------------|
--1----------------------|------------------------|------------------------|
-----3--2--3--0-------2--|-------------------0----|--------2------------2--|
-------------------------|--2-------2--2--3-------|--------0------0--0-----|
--1-----------3----3-----|--0----0-----3-----3----|-----0--0---------------|
-------------------------|------------------------|--0-----0---------------|


                                                   ^                   
  E  E  E  E  Q    Q       Q    E  E  Q.     E     Q.     E  H         
------------------------|-----------------------|---------------------|
------------------------|-------1--3--5------6--|--6------------------|
--2--------2--2---------|-----------------------|--5------------------|
-----0--0---------------|-----------------------|--3------------------|
-------------------3----|--1----------3---------|---------3-----------|
------------------------|-----------------------|------------3--------|


  E  E  E  E  E  E  E  E     E  E  E  E  E  E  E  E   
--0--1--------------------|--------------------------|
--------1-----3-----1-----|--------------------------|
--------2--2--------------|--2--------0--2-----0-----|
--3-----------------2-----|--0-----3-----------2-----|
--------------0-----3-----|--1-----------3-----------|
--------------------------|--------------------------|


  E  E  E  E  E  E  E  E     E  E  E  E  E  E  E  E     Q    Q    E  E  E  E   
--0--1--------------------|--------------------------|------------------------|
--------1-----3-----1-----|--------------------------|------------------------|
--------2--2--------------|--2--------0--2-----0-----|---------------------2--|
--3-----------------2-----|--0-----3-----------2-----|--0------------0--0-----|
--------------0-----3-----|--1-----------3-----------|-------0----------0-----|
--------------------------|--------------------------|--0---------0-----------|


  E  E  E  E  Q    Q       E  E  E  E  Q    E  E     Q    E  E  E  E  Q     
------------------------|-------------------------|------------------------|
------------------------|--1----------------------|------------------------|
--2--------2--2---------|-----3--2--3--0-------2--|-------------------0----|
-----0--0---------------|--------3----------------|--2-------2--2--3-------|
-------------------3----|--1-----------3----3-----|--0----0-----3-----3----|
------------------------|-------------------------|------------------------|


  Q    Q    E  E  E  E     E  E  E  E  Q    Q       E  E  E  E  E  E  E  E   
------------------------|------------------------|--------------------------|
------------------------|------------------------|--------1--3--5--------6--|
---------------------2--|--2--------2--2---------|--------3-----------5-----|
-------0-------0--0-----|-----0--0---------------|-----3-----3-----5-----5--|
-------0----------0-----|-------------------3----|--1-----------3-----------|
--0---------0-----------|------------------------|--------------------------|


  ^                                                                        
  Q.     E  E  E  Q       Q    E  E  E  E  E  E     E  E  E  E  Q    Q     
-----------------------|-------------------------|------------------------|
---------------1-------|-------------------------|------------------------|
--2------2--0-----2----|-------0--2--2--------2--|--2--------2--2---------|
--2--------------------|----------------0--0-----|-----0--0---------------|
--0---------3-----3----|-------0-----------0-----|-------------------3----|
-----------------------|--0----------0-----------|------------------------|


  E  E  E  E  Q    E  E     Q    E  E  E  E  Q       Q    Q    E  E  E  E   
-------------------------|------------------------|------------------------|
--1----------------------|------------------------|------------------------|
-----3--2--3--0-------2--|-------------------0----|---------------------2--|
--------3----------------|--2-------2--2--3-------|-------0-------0--0-----|
--1-----------3----3-----|--0----0-----3-----3----|-------0----------0-----|
-------------------------|------------------------|--0---------0-----------|


                                                   ^                   
  E  E  E  E  Q    Q       Q    E  E  Q.     E     Q.     E  H         
------------------------|-----------------------|---------------------|
------------------------|-------1--3--5------6--|--6------------------|
--2--------2--2---------|--3----------5---------|--5------------------|
-----0--0---------------|--3----------5---------|--3------------------|
-------------------3----|--1----------3---------|---------3-----------|
------------------------|-----------------------|------------3--------|


  E  E  E  E  E  E  E  E     E  E  E  E  E  E  E  E   
--0--1--------------------|--------------------------|
--------1-----3-----1-----|--------------------------|
--------2--2--------------|--2--------0--2-----0-----|
--3-----------------2-----|--0-----3-----------2-----|
--------------0-----3-----|--1-----------3-----------|
--------------------------|--------------------------|


                                                        ^                     
  E  E  E  E  E  E  E  E     E  E  E  E  E  E  E  E     H        E  E  E  E   
--0--1--------------------|--------------------------|-----------------------|
--------1-----3-----1-----|--------------------------|-----------------------|
--------2--2--------------|--2--------0--2-----0-----|--------------------2--|
--3-----------------2-----|--0-----3-----------2-----|--0--------L--0--0-----|
--------------0-----3-----|--1-----------3-----------|--0--------------------|
--------------------------|--------------------------|--0--------0-----------|


  E  E  E  E  Q    Q       E  E  E  E  Q    E  E     Q    E  E  E  E  Q     
------------------------|-------------------------|------------------------|
------------------------|--1----------------------|------------------------|
--2--------2--2---------|-----3--2--3--0-------2--|-------------------0----|
-----0--0---------------|--------3----------------|--2-------2--2--3-------|
-------------------3----|--1-----------3----3-----|--0----0-----3-----3----|
------------------------|-------------------------|------------------------|


        ^                                                                 
  E  E  Q.     E  E  E     E  E  E  E  Q    Q       Q    E  E  Q.     E   
------------------------|------------------------|-----------------------|
------------------------|------------------------|-------1--3--5------6--|
--------2------------2--|--2--------2--2---------|-----------------------|
--------0------0--0-----|-----0--0---------------|--3----------5---------|
-----0--0---------------|-------------------3----|--1----------3---------|
--0-----0---------------|------------------------|-----------------------|


  Q.     E  E  E  Q       E  E  E  E  E  E  E  E     E  E  E  E  Q    Q     
-----------------------|--------------------------|------------------------|
---------------1-------|--------------------------|------------------------|
--2------2--0-----2----|--------0--2--2--------2--|--2--------2--2---------|
--2---------2----------|--------0--------0--0-----|-----0--0---------------|
--0---------3----------|-----0--------------------|-------------------3----|
-----------------------|--0-----------0-----------|------------------------|


                                                           ^                
  E  E  E  E  Q    E  E     Q    E  E  E  E  Q       E  E  Q.     E  E  E   
-------------------------|------------------------|------------------------|
--1----------------------|------------------------|------------------------|
-----3--2--3--0-------2--|-------------------0----|--------2------------2--|
--------3----------2-----|--2-------2--2--3--2----|--------0------0--0-----|
--1-----------3----3-----|--0----0-----3----------|-----0--0---------------|
-------------------------|------------------------|--0-----0---------------|


                                                   ^                   
  E  E  E  E  Q    Q       Q    E  E  Q.     E     Q.     E  H         
------------------------|-----------------------|---------------------|
------------------------|-------1--3--5------6--|--6------------------|
--2--------2--2---------|-----------------------|--5------------------|
-----0--0---------------|--3----------5---------|--3------------------|
-------------------3----|--1----------3---------|---------3-----------|
------------------------|-----------------------|------------3--------|


  ^          ^            ^        ^           ^                    
  Q    E  E  Q.     E     H        H           Q    Q    Q    Q     
-----------------------|--------------------|----------------------|
-------1--3--5------6--|--6-----------------|--1-------------------|
--3----------5---------|--6--------8--------|--2--------------2----|
--3----------5---------|--6--------8--------|--3----3--------------|
--1----------3---------|--4--------6--------|------------0---------|
-----------------------|--------------------|--3-------------------|


  Q    Q    Q    Q       E  E  E  E  E  E  E  E     E  E  E  E  E  E  E  E   
----------------------|--0--1--------------------|--------------------------|
------------1---------|--------1-----3-----1-----|--------------------------|
-------3--------------|--2--------2--------------|--2--------0--2-----0-----|
----------------------|--3-----------0-----2-----|--0-----3-----------------|
--1---------3---------|--------------------3-----|--1-----------3-----------|
----------------------|--------------------------|--------------------------|


  E  E  E  E  E  E  E  E     E  E  E  E  E  E  E  E     W                  
--0--1--------------------|--------------------------|-------------------||
--------1-----3-----1-----|--------------------------|-------------------||
--2--------2--------------|--2--------0--2-----0-----|-------------------||
--3-----------0-----2-----|--0-----3-----------------|--3----------------||
--------------------3-----|--1-----------3-----------|--3----------------||
--------------------------|--------------------------|--3----------------||




Duration Legend
---------------
W - whole
H - half
Q - quarter
E - 8th
S - 16th
T - 32nd
X - 64th
. - note dotted
|-n-|  - n-tuplets


Tablature Legend
----------------
L - tied note
x - dead note
g - grace note
(n) - ghost note
> - accentuded note
NH - natural harmonic
AH - artificial harmonic
TH - tapped harmonic
SH - semi harmonic
PH - pitch harmonic
h - hammer on
p - pull off
b - bend
s - slide
/ -  slide into from below or out of upwards
\ -  slide into from above or out of downwards
~ - vibrato
W - wide vibrato
tr - trill
TP - tremolo picking
T - tapping
S - slap
P - pop
< - fade in
^ - brush up
v - brush down
Login or Register to remove this ad.

1 comment on Étude Pour les Petites Supercordes

Fun :)

5

Fun stuff!