Ads

Conquests Fantasy 1 (Civilization IV) Guitar Tab

Submitted: Jun 07, 2019 by olenellus (Last updated: Jun 23, 2019)

0
Download | Listen
Game: Civilization IV
Composer(s): Jeff Briggs, Mark Cromer, Michael Curran, Christopher Tin
Style: Arrangement
Series: Civilization

AutoScroll: Slow | Medium | Fast
Title: Conquests Fantasy 1 (Civilization IV)
Composed by: Unknown composer
Arranged and tabulated by: A. Zadorin
2019

(The attached ZIP-file contains this tablature, a sheet music,
and the GNU LilyPond source file for the sheet music)

***************************************************************************************

Moderato
6/8  E   S S S S E   E   E      E   S S S S E   E   E      E   S S S S E   E   E
e||--x---x-x-x-x-x---x---x---|--x---x-x-x-x-x---x---x---|--x---x-x-x-x-x---x---x---|
B||--x---x-x-x-x-x---x---x---|--x---x-x-x-x-x---x---x---|--x---x-x-x-x-x---x---x---|
G||--x---x-x-x-x-x---x---x---|--x---x-x-x-x-x---x---x---|--x---x-x-x-x-x---x---x---|
D||--------------------------|--------------------------|--------------------------|
A||--------------------------|--------------------------|--------------------------|
E||--------------------------|--------------------------|--------------------------|
     pp

4                               ^   pont.-------------|    ^   pont.-------------|
     E   S S S S E   E   E      E   S S S S E   E   E      E   S S S S E   E   E
e||--x---x-x-x-x-x---x---x---|--0---0-0-0-0-0---0---0---|--0---0-0-0-0-0---0---0---|
B||--x---x-x-x-x-x---x---x---|--0---0-0-0-0-0---0---0---|--0---0-0-0-0-0---0---0---|
G||--x---x-x-x-x-x---x---x---|--0---0-0-0-0-0---0---0---|--0---0-0-0-0-0---0---0---|
D||--------------------------|--2-----------------------|--2-----------------------|
A||--------------------------|--2-----------------------|--------------------------|
E||--------------------------|--0-----------------------|--------------------------|
                                p
                                
7    ^   pont.-------------|    ^   pont.---------|
     E   S S S S E   E   E      E   S S S S E   E   E       E   S S E   E   E   E
e||--0---0-0-0-0-0---0---0---|--0---0-0-0-0-0---0-------||--0-----2-3---5---7---3---|
B||--0---0-0-0-0-0---0---0---|--0---0-0-0-0-0---0---0---||--------------0-----------|
G||--0---0-0-0-0-0---0---0---|--0---0-0-0-0-0---0-------||*-----0-------------------|
D||--2-----------------------|--2-----------------------||*-------------------------|
A||--2-----------------------|--------------------------||--------------------------|
E||--0-----------------------|--------------------------||--0-----------------------|
                                                   mf

10                                                         CII---------------|
    E      E  E  E   E   E      E   S S E   E   E   E      E   E   E   E   E   E
e||-2g3g2--------2-------2---|--3-----2-0---0---2---0---|--------------2-------7---|
B||-----------3------3-------|--------------------------|--4-----------------------|
G||--------2-------------2---|--------------0-----------|----------2---------------|
D||-0------------------------|------2-------------------|------4-------------------|
A||--------------------------|--3-----------------------|--2-----------------------|
E||--------------------------|--------------------------|--------------------------|

13
     E   S S E   E   E   E     E      E  E  E   E   E      E   S S E   E   E   E
e||--7-----5-3---5---7---3---|-2g3g2--------2-------2---|--0-----2-3---0---2-------|
B||--------------0-----------|-----------3------3-------|----------------------4---|
G||--------------------------|--------2-------------2---|--------------------------|
D||------0-------------------|-0------------------------|------2-------------------|
A||--------------------------|--------------------------|--3-----------2-----------|
E||--3-----------------------|--------------------------|--------------------------|

16
     E   E   E   Q       E      E   S S E   E   E   E     E      E  E  E   E   E
e||--0-----------------------|--0-----2-3---5---7---3---|-2g3g2--------2-------2---|
B||------0---------------0---|--------------0-----------|-----------3------3-------|
G||----------0---------------|------0-------------------|--------2-------------2---|
D||--------------2-----------|--------------------------|-0------------------------|
A||--------------------------|--------------------------|--------------------------|
E||--0-----------------------|--0-----------------------|--------------------------|

19
     E   S S E   E   E   E      E   E   E   Q       E      E   S S E   E   E   E
e||--0-----2-3---3---0---3---|--2-----------2-------7---|--7-----5-3---5---7---3---|
B||--------------------------|--------------------------|--------------0-----------|
G||--------------0-----------|----------2---------------|--------------------------|
D||------2-------------------|------1-------------------|------0-------------------|
A||--3-----------------------|--2-----------------------|--------------------------|
E||--------------------------|--------------------------|--3-----------------------|

22
    E      E  E  E   E   E      E   S S E   E   E   E      E   E   E   Q.
e||-2g3g2--------2-------2---|--0-----2-3---0---2-------|--0-----------------------|
B||-----------3------3-------|----------------------4---|------0-------------------|
G||--------2-------------2---|--------------------------|----------0---------------|
D||-0------------------------|------2-------------------|--------------2-----------|
A||--------------------------|--3-----------2-----------|--------------------------|
E||--------------------------|--------------------------|--0-----------------------|

25   ^     ^        ^              ^     ^        ^              ^     ^
     Q.    E Q      Q   Q   Q      Q.    E Q      Q   Q   Q      Q.    E Q
e||--0-----0-----|--------------|--0-----0-----|--0---2---3---|--0-----0-----|
B||--0-----3-3---|--0-----------|--0-----3-3---|--0-----------|--0-----3-3---|
G||--0-----2-----|--0---2---0---|--0-----2-----|--0-----------|--0-----2-----|
D||--2-----0-----|--2-----------|--2-----0-----|--2-----------|--2-----0-----|
A||--------------|--------------|--------------|--------------|--------------|
E||--0-----------|--------------|--0-----------|--------------|--0-----------|

30   ^              ^              ^                                  ^
     Q   Q   Q      Q   E E Q      H.      E   E   E   E   E   E      Q   Q   Q
e||--------------|--------------|-------|--0-----------0---3-------|--------------|
B||--0-----------|--------------|--0----|----------0-----------3---|--0-----------|
G||--0---2---0---|--0-----------|--2----|------0-----------2-------|--0---2---0---|
D||--2-----------|--2---4---2---|--1----|--2-----------0-----------|--2-----------|
A||--------------|--3-----3-----|--2----|--------------------------|--------------|
E||--------------|--------------|-------|--0-----------------------|--------------|

35                              ^
     E   E   E   E   Q          E   E   E   E   E   E      E   E   E   E   Q
e||--0-----------0-----------|--0---2---3---5---3---2---|--0-----------0-----------|
B||----------0-------3-------|--0-----------------------|----------0-------3-------|
G||------0-----------2-------|--0-----------------------|------0-----------2-------|
D||--2-----------0-----------|--2-----------------------|--2-----------0-----------|
A||--------------------------|--------------------------|--------------------------|
E||--0-----------------------|--------------------------|--0-----------------------|

38   ^              ^
     E E E E Q      Q   E E Q      E   E   E   E   E   E      E   E   E   E   E   E
e||--------------|--------------|------2-------2-------2---|------2-------2-------2---|
B||--0-----------|--------------|--0---0---0---0---0---0---|--0---0---0---0---0---0---|
G||--0---2---0---|--0-----------|--2---2---2---2---2---2---|--2---2---2---2---2---2---|
D||--2-----------|--2---4---2---|--1-------1-------1-------|--1-------1-------1-------|
A||--2-2---2-----|--3-----3-----|--2-----------------------|--2-----------------------|
E||--0-----------|--------------|--------------------------|--------------------------|

                               ____________  ____________
42                            |1.^         ||2.^
     E   E   E   E   E   E       Q  Q.  E      Q  Q.  E     E  E     E  E   E     E
e||------2-------2-------2---|---2---------||--2------2--|--3--2g3g2p0--2---0g2g0-----|
B||--0---0---0---0---0---0---|---0------0--||--0---------|------------------------3---|
G||--2---2---2---2---2---2---|---2--------*||--2---------|----------------------------|
D||--1-------1-------1-------|---1--------*||--1---------|--------------0-------------|
A||--2-----------------------|---2---------||--2---------|--3-------------------------|
E||--------------------------|-------------||------------|----------------------------|
                                sf            sf

46
     E   E   E   Q.             Q   E Q.       Q   E Q.       Q   E Q.
e||--0----------------------||--3---3-2-----|--0---0-------|--------------|
B||------0------------------||--------------|--------3-----|--1---1-0-----|
G||----------0--------------||--------------|--------------|--------------|
D||--2-----------2----------||--------------|--------------|--------------|
A||------2------------------||--------------|--3-----------|--0-----------|
E||----------3---0----------||--0-----2-----|--------3-----|--------3-----|

50
     E E E Q.       Q   E Q.       Q   E Q.       Q   E Q.       E E E Q   E
e||--------------|--3---3-2-----|--0---0-------|--------------|--0-2-3-3---2-|
B||----3---0-----|--------------|--------3-----|--1---1-0-----|--------------|
G||--2---2-------|--------------|--------------|--------------|--------------|
D||--0-----------|--------------|--------------|--------------|--------0-----|
A||--------------|--------------|--3-----------|--0-----2-----|--3-----------|
E||--------3-----|--0-----2-----|--------3-----|--------------|--------------|

55
     Q   E Q.       Q   E Q.       Q   E Q.       E E E Q.       Q   E Q.
e||--3---3-2-----|--0---0-------|--------------|----3---------|--3---3-2-----|
B||--------------|--------3-----|--1---1-0-----|--2---2-0-----|--------------|
G||--------------|--------------|--------------|--------------|--------------|
D||--------------|--------------|--------------|--------------|--------------|
A||--------------|--3-----2-----|--0-----------|--------------|--------------|
E||--3-----2-----|--------------|--------3-----|--2-----3-----|--0-----2-----|

60
     Q   E Q.       Q   E Q.   3/8 E E E 6/8 E   E   E   E   E   E
e||--0---0-------|--------------|----3----|--------------2-----------|
B||--------3-----|--1---1-0-----|--2---2--|--0---------------0-------|
G||--------------|--------------|---------|----------2-----------2---|
D||--------------|--------------|----0----|------1-------------------|
A||--3-----------|--0-----------|--0---0--|--2-----------------------|
E||--------3-----|--------3-----|---------|--------------------------|

64                                                         ^
     E   E   E   E   E   E      E   E   E   E   E   E      E H    E
e||--------------2-----------|--------------2-----------|--2------2--|
B||------------------0-------|------------------0-------|--0---------|
G||----------2-----------2---|----------2-----------2---|--2---------|
D||------1-------------------|------1-------------------|--1---------|
A||--2-----------------------|--2-----------------------|--2---------|
E||--------------------------|--------------------------|------------|
                                                          sf

67                                                           ^   pont.-------------|
     E  E     E  E   E     E      E   E   E   Q.             E   S S S S E   E   E
e||--3--2g3g2p0--2---0g2g0-----|--0----------------------||--0---0-0-0-0-0---0---0---|
B||------------------------3---|------0------------------||--0---0-0-0-0-0---0---0---|
G||----------------------------|----------0--------------||--0---0-0-0-0-0---0---0---|
D||--------------0-------------|--2-----------2----------||--2-----------------------|
A||--3-------------------------|------2------------------||--2-----------------------|
E||----------------------------|----------3---0----------||--0-----------------------|
                                                             p
                                                             
70   ^   pont.-------------|    ^   pont.-------------|    ^   pont.-------------|
     E   S S S S E   E   E      E   S S S S E   E   E      E   S S S S E   E   E
e||--0---0-0-0-0-0---0---0---|--0---0-0-0-0-0---0---0---|--0---0-0-0-0-0---0-------|
B||--0---0-0-0-0-0---0---0---|--0---0-0-0-0-0---0---0---|--0---0-0-0-0-0---0---0---|
G||--0---0-0-0-0-0---0---0---|--0---0-0-0-0-0---0---0---|--0---0-0-0-0-0---0-------|
D||--2-----------------------|--2-----------------------|--2-----------------------|
A||--------------------------|--2-----------------------|--------------------------|
E||--------------------------|--0-----------------------|--------------------------|
                                                                              mf

73
     E   S S E   E   E   E     E      E  E  E   E   E      E   S S E   E   E   E
e||--0-----2-3---5---7---3---|-2g3g2--------2-------2---|--3-----2-0---0---2---0---|
B||--------------0-----------|-----------3------3-------|--------------------------|
G||------0-------------------|--------2-------------2---|--------------0-----------|
D||--------------------------|-0------------------------|------2-------------------|
A||--------------------------|--------------------------|--3-----------------------|
E||--0-----------------------|--------------------------|--------------------------|

76   CII---------------|
     E   E   E   E   E   E      E   S S E   E   E   E     E      E  E  E   E   E
e||--------------2-------7---|--7-----5-3---5---7---3---|-2g3g2--------2-------2---|
B||--4-----------------------|--------------0-----------|-----------3------3-------|
G||----------2---------------|--------------------------|--------2-------------2---|
D||------4-------------------|------0-------------------|-0------------------------|
A||--2-----------------------|--------------------------|--------------------------|
E||--------------------------|--3-----------------------|--------------------------|

79
     E   S S E   E   E   E      E   E   E   Q       E      E   S S E   E   E   E
e||--0-----2-3---0---2-------|--0-----------------------|--0-----2-3---5---7---3---|
B||----------------------4---|------0---------------0---|--------------0-----------|
G||--------------------------|----------0---------------|------0-------------------|
D||------2-------------------|--------------2-----------|--------------------------|
A||--3-----------2-----------|--------------------------|--------------------------|
E||--------------------------|--0-----------------------|--0-----------------------|

82
    E      E  E  E   E   E      E   S S E   E   E   E      E   E   E   Q       E
e||-2g3g2--------2-------2---|--0-----2-3---3---0---3---|--2-----------2-------7---|
B||-----------3------3-------|--------------------------|--------------------------|
G||--------2-------------2---|--------------0-----------|----------2---------------|
D||-0------------------------|------2-------------------|------1-------------------|
A||--------------------------|--3-----------------------|--2-----------------------|
E||--------------------------|--------------------------|--------------------------|

85
     E   S S E   E   E   E     E      E  E  E   E   E      E   S S E   E   E   E
e||--7-----5-3---5---7---3---|-2g3g2--------2-------2---|--0-----2-3---0---2-------|
B||--------------0-----------|-----------3------3-------|----------------------4---|
G||--------------------------|--------2-------------2---|--------------------------|
D||------0-------------------|-0------------------------|------2-------------------|
A||--------------------------|--------------------------|--3-----------2-----------|
E||--3-----------------------|--------------------------|--------------------------|

88                              ^     ^        ^      ^     ^        ^
     E   E   E   Q.             Q.    E Q      H.     Q.    E Q      Q   Q   Q
e||--0-----------------------|--0-----0-----|------|--0-----0-----|--0---2---3---|
B||------0-------------------|--0-----3-3---|--0---|--0-----3-3---|--0-----------|
G||----------0---------------|--0-----2-----|--0---|--0-----2-----|--0-----------|
D||--------------2-----------|--2-----0-----|--2---|--2-----0-----|--2-----------|
A||--------------------------|--------------|------|--------------|--------------|
E||--0-----------------------|--0-----------|------|--0-----------|--------------|

93   ^     ^        ^              ^              ^
     Q.    E Q      Q   Q   Q      Q   E E Q      H.      E   E   E   E   E   E
e||--0-----0-----|--------------|--------------|-------|--0-----------0---3-------|
B||--0-----3-3---|--0-----------|--------------|--0----|----------0-----------3---|
G||--0-----2-----|--0---2---0---|--0-----------|--2----|------0-----------2-------|
D||--2-----0-----|--2-----------|--2---4---2---|--1----|--2-----------0-----------|
A||--------------|--------------|--3-----3-----|--2----|--------------------------|
E||--0-----------|--------------|--------------|-------|--0-----------------------|

98                                                         ^
     E   E   E   E   E   E      E   E   E   E   Q          E   E   E   E   E   E
e||----------------------0---|--0-----------0-----------|--0---2---3---5---3---2---|
B||--0---------------0-------|----------0-------3-------|--0-----------------------|
G||--------------0-----------|------0-----------2-------|--0-----------------------|
D||----------2---------------|--2-----------0-----------|--2-----------------------|
A||------2-------------------|--------------------------|--------------------------|
E||--0-----------------------|--0-----------------------|--------------------------|

101                             ^              ^
     E   E   E   E   Q          E E E E Q      Q   E E Q      E   E   E   E   E   E
e||--0-----------0-----------|--------------|--------------|------2-------2-------2---|
B||----------0-------3-------|--0-----------|--------------|--0---0---0---0---0---0---|
G||------0-----------2-------|--0---2---0---|--0-----------|--2---2---2---2---2---2---|
D||--2-----------0-----------|--2-----------|--2---4---2---|--1-------1-------1-------|
A||--------------------------|--2-2---2-----|--3-----3-----|--2-----------------------|
E||--0-----------------------|--0-----------|--------------|--------------------------|

105                                                        ^
     E   E   E   E   E   E      E   E   E   E   E   E      Q  Q.  E
e||------2-------2-------2---|------2-------2-------2---|--2------2--|
B||--0---0---0---0---0---0---|--0---0---0---0---0---0---|--0---------|
G||--2---2---2---2---2---2---|--2---2---2---2---2---2---|--2---------|
D||--1-------1-------1-------|--1-------1-------1-------|--1---------|
A||--2-----------------------|--2-----------------------|--2---------|
E||--------------------------|--------------------------|------------|
                                                          sf

108
     E  E     E  E   E     E      E   E   E   Q.
e||--3--2g3g2p0--2---0g2g0-----|--0----------------------||
B||------------------------3---|------0------------------||
G||----------------------------|----------0--------------||
D||--------------0-------------|--2-----------2----------||
A||--3-------------------------|------2------------------||
E||----------------------------|----------3---0----------||
    rall.

***************************************************************************************

Notations

Above the staff:
n          - measure number n
x/y        - time signature
H          - half note
Q          - quarter note
E          - eighth note
S          - sixteenth note
N.         - dotted note
CN         - bar at fret N
^          - arpeggio
 ___
|n. |      - volta alternative
pont.      - play at the bridge

On the staff:
||* *||    - repeat
g          - appoggiatura (long grace note with legato,
                it plays at the expense of the main note time)
p          - pull off
x          - dead note

Below the staff:
rall.      - progressively slow down to slow tempo
pp,p,mf,sf - dynamics
Login or Register to remove this ad.