Ads

Wind Scene (Chrono Trigger) Guitar Tab

Submitted: Nov 07, 2009 by Maikoi92 (Last updated: Nov 27, 2009)

4.916665
Average: 4.9 (12 votes)
Download | Listen
Game: Chrono Trigger
Composer(s): Nobuo Uematsu, Yasunori Mitsuda, Noriko Matsueda
Style: Arrangement, Fingerstyle, Natural harmonics, Transcription
Series: Chrono

This song is also called 600 A.D.

Click here for a video example.

AutoScroll: Slow | Medium | Fast
This is a transcription of southwind19312's arrangement, and my first transcription ever! It should be pretty accurate.

Enjoy playing cause I know I will ^^
                     

                               Wind Scene 600 A.D.                                             
                               from Chrono Trigger
                    Arranged and performed by southwind193812

Guitar (Capo 2)

Dsus4 tuning D2 A2 D3 G3 A3 D4

Transcribed by maikoi15011



     Q    Q       E  E  E  E  E  E  E  E     E  E  E  E  Q    Q     
D||--0----2----|--3--2--------0--------0--|------------------------|
A||------------|--------3--0--------------|--3--0--------0---------|
G||------------|--------------------3-----|-----------0-------0----|
D||------------|--------0--------3--------|--------3---------------|
A||------------|-----0--------1-----------|--0-----3---------------|
D||------------|--0-----------------------|--------------3----2----|


  E  E  E  E  Q    E  E     E  E  E  E  Q    Q       E  E  E  E  E  E  E  E   
--------------2----3-----|-------------------2----|--3--2--------0--------0--|
--------0--3-------------|--3---------------------|--------3--0--------------|
-------------------------|--------0---------------|--------------------3-----|
--2--3--0-------------0--|-----3-----3--2---------|--------0--------3--------|
-----0-------------------|--3-----------3---------|-----0--------1-----------|
--0-----------5----------|------------------------|--0-----------------------|


  E  E  E  E  Q    Q       E  E  E  E  E  E  E  E   
------------------------|--------------2--0-----0--|
--3--0--------0---------|--------0--3--------3-----|
-----------0-------0----|--------------------------|
--------3---------------|--2--3--0-----------------|
--0-----3---------------|-----0--------------0-----|
--------------3----2----|--0-----------5-----------|


                 ^                                            
  E  E  E  E     Q     Q        E   E   E   E   E  E  E   E   
--0-----------<>12----14----|--15--14----------12--------12--|
--------0-----<>12----------|----------15--12----------------|
-----0-----0--<>12----------|--------------------------------|
--0-----------<>12----------|-----------0-------------8------|
----------------------------|-------0--------------8---------|
----------------------------|---0---------------8------------|


   E  E  E  E  Q    Q       E  E  E   E   Q        Q     
--10--7-----5--7----5----|--------7--10--14----14g15----|
---------8---------------|--7--8------------------------|
-------------------------|------------------------------|
-------------------------|--------0---------------------|
---------5-----8----7----|-----0---------10-------------|
---7---------------------|--0---------------------------|


   E   E   E   E   Q     Q        E   E   E   E   E  E  E   E   
--10--------------------14----|--15--14----------12--------12--|
------------------------------|----------15--12----------------|
--------------10--------------|--------------------------------|
----------10------14----------|-----------0-------------8------|
------10----------------------|-------0--------------8---------|
--10--------------10----------|---0---------------8------------|


   E  E  E  E  Q    Q       E  E  E   E   E   E   E   E   
--10--7-----5--7----5----|--------7--10--14--12------12--|
---------8---------------|--7--8-----------------15------|
-------------------------|-------------------------------|
-------------------------|--------0----------------------|
---------5-----8----7----|-----0---------10------12------|
---7---------------------|--0----------------------------|


     NH    NH    NH    NH                                         
     E     E     E     E   Q    E  E     E  Q    E   E  E  E  E   
--<>12-----------------------------7--|--7-----------------------|
--------------------<>12--------------|--8----------10-----8-----|
--------------<>12--------11----------|--------------9-----7-----|
--------<>12--------------------0-----|--------------------------|
--------------------------------------|--------------------------|
----12---------------------0----------|--8--8----8---8--8-----8--|


  E  Q    E  E  E  E  E     E  Q    E  E  E  E  E     E  E  E  E  E  E  E  E   
-------------------5-----|-------------------------|--------------------------|
--7----------8-----------|--7----------------3-----|--0-----------------3-----|
--5----------------------|-------------------2-----|--------------------------|
-------------------------|-------------------------|--3-----2-----3-----------|
-------------------------|--0--0----0--0--0-----0--|--------------------------|
--8--8----8--8--8-----8--|-------------------------|--0--0-----0--0--0-----0--|


  E  Q    E  E  E  E  E     E  Q    E  E  E  E  E     E  E  E  E  E  E  E  E   
-------------------0-----|--2----------3-----5-----|--2-----------------------|
-------------------------|--3----------3-----------|--------3-----0-----3-----|
--3----------5-----------|-------------------------|--------------------------|
--5----------------------|-------------------------|--------------------------|
-------------------------|--3--3----3--3--3-----3--|--------------------------|
--5--5----5--5--5-----5--|-------------------------|--3--3-----3--3--3-----0--|


  E  E  E  E  E  E  E  E     E  Q    E   E  E  E  E     E  Q    E  E  E  E  E   
--------------------------|--7-----------------------|-------------------5-----|
-----------------------3--|--8----------10-----8-----|--7----------8-----------|
--------------0--2--3-----|--------------9-----7-----|--5----------5-----------|
--1-----3-----------------|--------------------------|-------------------------|
--------------------------|--------------------------|-------------------------|
--3--3-----3--3--3--------|--8--8----8---8--8-----8--|--8--8----8--8--8-----8--|


  E  Q    E   E  E  E  E     E  E  E  E  E  E  E  E     E  Q    E  E  E  E  E   
--7-----------------------|--------------------------|--7----------5-----------|
--8----------10-----8-----|--7-----------7-----8-----|-------------------8-----|
--------------------------|--------7-----------------|-------------------------|
--------------------------|--------------------------|-------------------------|
--------------------------|--------------------------|-------------------------|
--9--9----9---9--9-----9--|--9--9-----9--9--9-----0--|--5--5----5--5--5-----5--|


  E  E  E  E  E  E  E  E     E  E  E  E  E  E  E  E   
--------------------------|--------------------------|
--7-----5-----4-----5-----|--7--------7--------------|
--------------------------|--------6-----7--------7--|
--------------------------|-----7-----------7--------|
--------------------------|--7-----------------7-----|
--6--6-----6--6--6-----0--|--------------------------|


    NH   NH   NH   NH    NH                                           
    E    E    E    E     Q     Q        E   E   E   E   E  E  E   E   
----0-----------------<>12----14----|--15--14----------12--------12--|
-----------------<>7----------------|----------15--12----------------|
------------<>7---------------------|--------------------------------|
-------<>7--------------------------|-----------0-------------8------|
--<>7-------------------------------|-------0--------------8---------|
------------------------------------|---0---------------8------------|


   E  E  E  E  Q    Q       E  E  E   E   Q        Q     
--10--7-----5--7----5----|--------7--10--14----14g15----|
---------8---------------|--7--8------------------------|
-------------------------|------------------------------|
-------------------------|--------0---------------------|
---------5-----8----7----|-----0---------10-------------|
---7---------------------|--0---------------------------|


   E   E   E   E   Q     Q        E   E   E   E   E  E  E   E   
--10--------------------14----|--15--14----------12--------12--|
------------------------------|----------15--12----------------|
--------------10--------------|--------------------------------|
----------10------14----------|-----------0-------------8------|
------10----------------------|-------0--------------8---------|
--10--------------10----------|---0---------------8------------|


   E  E  E  E  Q    Q       E  E  E   E   E   E   E   E   
--10--7-----5--7----5----|--------7--10--14--12------12--|
---------8---------------|--7--8-----------------15------|
-------------------------|-------------------------------|
-------------------------|--------0----------------------|
---------5-----8----7----|-----0---------10------12------|
---7---------------------|--0----------------------------|


     NH    NH    NH    NH    ^                            ^             
     E     E     E     E     Q     E   E      E   E   E   H         E   
--<>12--------------------<>12----14--15--|--14----------12--------12--|
--------------------<>12--<>12------------|------15--12---8------------|
--------------<>12--------<>12------------|---------------8------------|
--------<>12------------------------------|-------0--------------------|
------------------------------------------|---0------------------------|
----12--------------------<>12---------0--|---------------8------------|


   ^                               
   Q     E    E   E      Q     E   
--10-------------10--12g14----12--|
---8----10S--12-------------------|
---0------------------------------|
----------------------------------|
---0---------------------0--------|
----------------------------------|


         NH    NH    NH    NH    NH    NH    NH       NH        ^          
   E     E     E     E     E     E     E     E        Q    Q    H          
--10--<>12--------------------<>12--------------|---------------0--------||
------------------------<>12--------<>12--------|---------------7--------||
------------------<>12--------------------<>12--|---------------6--------||
------------<>12--------------------------------|--<>12---------4--------||
------------------------------------------------|---------------5--------||
---------0--------------------------------------|----------0-------------||




Duration Legend
---------------
W - whole
H - half
Q - quarter
E - 8th
S - 16th
T - 32nd
X - 64th
. - note dotted
|-n-|  - n-tuplets


Tablature Legend
----------------
L - tied note
x - dead note
g - grace note
(n) - ghost note
> - accentuded note
NH - natural harmonic
AH - artificial harmonic
TH - tapped harmonic
SH - semi harmonic
PH - pitch harmonic
h - hammer on
p - pull off
b - bend
br - bendRelease
pb - preBend
pbr - preBendRelease
brb - bendReleaseBend
\n/ - tremolo bar dip
\n - tremolo bar dive
-/n - tremolo bar Release up
/n\ - tremolo bar inverted dip
/n - tremolo bar return
-\n - tremolo bar Release down
S - shift slide
s - legato slide
/ -  slide into from below or out of upwards
\ -  slide into from above or out of downwards
~ - vibrato
W - wide vibrato
tr - trill
TP - tremolo picking
T - tapping
S - slap
P - pop
< - fade in
^ - brush up
v - brush down
Login or Register to remove this ad.

6 comments on Wind Scene

Excellent transcription here.

5

Excellent transcription here. Really impressive since it's your first.

Wow, great job on this

5

Wow, great job on this Linsey!

TRANSCRIPTION?

What is a transcription?
ANSWER PLEASE

A transcription is a note for

A transcription is a note for note writing of how the song is originally played. It would be an arrangement if the person added their own material to the song to add a personal touch.

Thanks hslesperance

Thanks hslesperance
Theres a page for learning this things for ex.
Transcription or br (bend release)

Very nice

5

Very nice