To Far Away Times (Chrono Trigger) Guitar Tab

Submitted: May 22, 2011 by BacardiBreezer

5
Average: 5 (1 vote)
Download | Listen
Game: Chrono Trigger
Composer(s): Nobuo Uematsu, Yasunori Mitsuda, Noriko Matsueda
Style: Transcription
Series: Chrono

AutoScroll: Slow | Medium | Fast
To Far Away Times
Chrono Trigger
Composer: Yasunori Mitsuda
Tabbed by Bacardibreezer
5/20/11


Beginning Rhythm - Play 2x

e|-------------------------19-------------18-----------------|
B|--------19-21---------19-------------19-------------19-----|
G|-----20------------20-------------20-------------20--------|
D|--18------------18-------------18-------------18-----------|
A|-----------------------------------------------------------|
E|-----------------------------------------------------------|

e|-------------------------19-------------21-----------------|
B|--------19-21---------19-------------19-------------21-----|
G|-----20------------20-------------20-------------20--------|
D|--18------------18-------------18-------------18-----------|
A|-----------------------------------------------------------|
E|-----------------------------------------------------------|

This is the main melody, which consists of the keys, flute and strings. I'm just way too lazy to separate all of them. Sorry!

This measure is keys.

e|---9~--------11---14-14~-------14--13-13~-----11---13-11-9~-------8--9--11~---------9--8--|
B|--------------------------------------------------------------------------------11--------|
G|------------------------------------------------------------------------------------------|
D|------------------------------------------------------------------------------------------|
A|------------------------------------------------------------------------------------------|
E|------------------------------------------------------------------------------------------|

Next three staves are flute.

e|--------------16--16--14-13------------|-----------------16---------------13--------|
B|--14~----16~----------------14----14~--|--14-16-14-13-14------14-14---16------16~---|
G|-------------------------------13------|--------------------------------------------|
D|---------------------------------------|--------------------------------------------|
A|---------------------------------------|--------------------------------------------|
E|---------------------------------------|--------------------------------------------|

e|--------------16--16--14-13------------|-----------------16----18-------15---16~----|
B|--14~----16~----------------14----14~--|--14-16-14-13-14----------16----------------|
G|-------------------------------13------|--------------------------------------------|
D|---------------------------------------|--------------------------------------------|
A|---------------------------------------|--------------------------------------------|
E|---------------------------------------|--------------------------------------------|

e|-----------------|--------------|-----------------|----------------------|
B|--14--13-14------|--------------|--14---13-14-16~-|----------13--14--16--|
G|------------13~--|--------13~---|-----------------|-13--15---------------|
D|-----------------|--15-16-------|-----------------|----------------------|
A|-----------------|--------------|-----------------|----------------------|
E|-----------------|--------------|-----------------|----------------------|

Next two staves are the strings.

e|--------------16--16--14-13------------|-----------------16---------------13--------|
B|--14~----16~----------------14----14~--|--14-16-14-13-14------14-14---16------16~---|
G|-------------------------------13------|--------------------------------------------|
D|---------------------------------------|--------------------------------------------|
A|---------------------------------------|--------------------------------------------|
E|---------------------------------------|--------------------------------------------|

e|--------------16--16--14-13------------|-----------------16----18-------15---16~----|
B|--14~----16~----------------14----14~--|--14-16-14-13-14----------16----------------|
G|-------------------------------13------|--------------------------------------------|
D|---------------------------------------|--------------------------------------------|
A|---------------------------------------|--------------------------------------------|
E|---------------------------------------|--------------------------------------------|

The rest are keys until "Memories of Green"

e|-------------------------------------------------------|
B|--14--14-14-13----------------11--11-11-9--------------|
G|----------------15-13---------------------10-----------|
D|----------------------15---------------------11-8------|
A|-------------------------------------------------------|
E|-------------------------------------------------------|

e|-------------------------------------------------------|
B|---------9----------------------9----------------------|
G|--11--11---10-8-6-8--8--------8---8--------------------|
D|---------------------------11------------11-10---------|
A|-----------------------------------------------11------|
E|-------------------------------------------------------|

e|---------11--------------------------------------------|
B|--14--14----13----------------11--11-11-9--------------|
G|----------------15-13---------------------10-----------|
D|----------------------15---------------------11-8------|
A|-------------------------------------------------------|
E|-------------------------------------------------------|

e|-------------------------------------------8-9-11~-----|
B|---------9---------------------4-----4---9-------------|
G|--11--11---10-8-6-8--8-------6-----6-------------------|
D|---------------------------6-----6---------------------|
A|-------------------------------------------------------|
E|-------------------------------------------------------|

e|---------------------------------------------------------------|
B|--14-------13-14--------13-14--------13-14-------13-14----13---|
G|--------13-----------13-----------13----------13---------------|
D|---------------------------------------------------------------|
A|---------------------------------------------------------------|
E|---------------------------------------------------------------|

e|---------------------------------------------------------------|
B|-----13-15---------13-15---------13-15---------13-15----13-----|
G|--12------------12------------12------------12-----------------|
D|---------------------------------------------------------------|
A|---------------------------------------------------------------|
E|---------------------------------------------------------------|

e|---------------------------------------------------------------|
B|--------13------------13------------13------------13-----------|
G|-----15------------15------------15------------15-------15-----|
D|--15------------15------------15------------15-----------------|
A|---------------------------------------------------------------|
E|---------------------------------------------------------------|

e|---------------------------------------------------------------|
B|-----10-11---------10-11---------10-11---------10-11----12-----|
G|---------------------------------------------------------------|
D|--12------------12------------12------------12-----------------|
A|---------------------------------------------------------------|
E|---------------------------------------------------------------|

e|---------------------------------------------------------------|
B|--------15------------15------------15------------15----13-----|
G|-----12------------12------------12------------12--------------|
D|--12------------12------------12------------12-----------------|
A|---------------------------------------------------------------|
E|---------------------------------------------------------------|

e|-------8-------------8-------------8-------------8------10-----|
B|---------------------------------------------------------------|
G|--9-10----------9-10----------9-10----------9-10---------------|
D|---------------------------------------------------------------|
A|---------------------------------------------------------------|
E|---------------------------------------------------------------|

e|-------10------------10--13------10-13--------10-13------|
B|-----8-------------8-------------------------------------|
G|--10------------10------------12------------12-----------|
D|---------------------------------------------------------|
A|---------------------------------------------------------|
E|---------------------------------------------------------|

e|-----10-12------10-12------10-12------10-12------10-12------10-12------10-12------10-12--|
B|-----------------------------------------------------------------------------------------|
G|--12---------12---------12---------12---------12---------12---------12---------12--------|
D|-----------------------------------------------------------------------------------------|
A|-----------------------------------------------------------------------------------------|
E|-----------------------------------------------------------------------------------------|

Switch to "Memories of Green"

e|----------12--13~--|----12------|-----------15-17-17---15-14-----|
B|------15-----------|-------13~--|--------15------------------15~-|
G|--14---------------|-14---------|--------------------------------|
D|-------------------|------------|--------------------------------|
A|-------------------|------------|--------------------------------|
E|-------------------|------------|--------------------------------| x2

e|-----12-13~---15~---17~---18~---18-20-20--19-18-17~----|
B|--15---------------------------------------------------|
G|-------------------------------------------------------|
D|-------------------------------------------------------|
A|-------------------------------------------------------|
E|-------------------------------------------------------|

e|---------------13--15--12h10p12~---|
B|--15--13--15~----------------------|
G|-----------------------------------|
D|-----------------------------------|
A|-----------------------------------|
E|-----------------------------------|

Rest, then play "Far Off Promise":

e|--------------------18-15~--|----------------------------------------|
B|-----16~---16-18~-----------|--18-16~----16-18~-------16-16---15~----|
G|--15------------------------|----------------------17----------------|
D|----------------------------|----------------------------------------|
A|----------------------------|----------------------------------------|
E|----------------------------|----------------------------------------|

e|-----------18-18-18-16-15-16~----16-16-15-----15~---|
B|------------------------------------------18--------|
G|--17-15~--------------------------------------------|
D|----------------------------------------------------|
A|----------------------------------------------------|
E|----------------------------------------------------|

e|--15-------18---------------15-------------------18-18--16--15-----------------|
B|-----18~------16~---16-15~--------------------16----------------16~---18--16~--|
G|-------------------------------17~---17-15~------------------------------------|
D|-------------------------------------------------------------------------------|
A|-------------------------------------------------------------------------------|
E|-------------------------------------------------------------------------------|
Login or Register to remove this ad.