A Strange Happening (Chrono Trigger) Guitar Tab

Submitted: Jul 27, 2012 by hslesperance

5
Average: 5 (1 vote)
Download | Listen
Game: Chrono Trigger
Composer(s): Nobuo Uematsu, Yasunori Mitsuda, Noriko Matsueda
Style: 2 or more instruments, Transcription
Series: Chrono

AutoScroll: Slow | Medium | Fast
A Strange Happening
Chrono Trigger
Composed by Yasunori Mitsuda
Tabbed by hslesperance
7/27/12

Standard Tuning


Guitar 1

  E.  S    H.                        +E.      S   H.                       +E.      S
|----10-|------------------------------------10-|----------------------------------10-|
|-------|-10------------------------(10)--------|-9------------------------(9)--------|
|-------|--9-------------------------(9)--------|-8------------------------(8)--------|
|-------|---------------------------------------|-------------------------------------|
|-------|---------------------------------------|-------------------------------------|
|-------|---------------------------------------|-------------------------------------|


   H.                        +E.      S   H.                       +E.      S
|------------------------------------10-|----------------------------------10----|
|-10------------------------(10)--------|-9------------------------(9)-----------|
|--9-------------------------(9)--------|-8------------------------(8)-----------|
|---------------------------------------|----------------------------------------|
|---------------------------------------|----------------------------------------|
|---------------------------------------|----------------------------------------|


   H.                        +E.      S   H.                       +E.      S
|------------------------------------10-|----------------------------------10-|
|-10------------------------(10)--------|-9------------------------(9)--------|
|--9-------------------------(9)--------|-8------------------------(8)--------|
|---------------------------------------|-------------------------------------|
|---------------------------------------|-------------------------------------|
|---------------------------------------|-------------------------------------|


   H.                        +E.      S   W
|------------------------------------10-|------------------------------------|
|-10------------------------(10)--------|-9----------------------------------|
|--9-------------------------(9)--------|-8----------------------------------|
|---------------------------------------|------------------------------------|
|---------------------------------------|------------------------------------|
|---------------------------------------|------------------------------------|


  Q  e Q.   e E   +Q   e Q.   e E   +Q   e Q.   e E   +Q   e Q.   e E   +W
|----1-4----4-3-|-(3)--3-2----2-1-|-(1)--1-4----4-3-|-(3)--3-2----2-1-|-(1)----*|
|----1-4----4-3-|-(3)--3-2----2-1-|-(1)--1-4----4-3-|-(3)--3-2----2-1-|-(1)----*|
|---------------|-----------------|-----------------|-----------------|--------*|
|---------------|-----------------|-----------------|-----------------|--------*|
|---------------|-----------------|-----------------|-----------------|--------*|
|---------------|-----------------|-----------------|-----------------|--------*|




Guitar 2

  S S S S S S S S S S S S S S S S   S S S S S S S S S S S S S S S S
|-5-------5-------5-------5-------|-4-------4-------4-------4--------|
|---6-5-6---6-5-6---6-5-6---6-5-6-|---6-5-6---6-5-6---6-5-6---6-5-6--|
|---------------------------------|----------------------------------|4x
|---------------------------------|----------------------------------|
|---------------------------------|----------------------------------|
|---------------------------------|----------------------------------|

W - whole
H - half
Q - quarter
E - 8th
S - 16th
+ - note tied to previous
. - note dotted

Uncapitalized letters represent notes that are staccato (1/2 duration)
Login or Register to remove this ad.

1 comment on A Strange Happening

Awesome! I was trying to

5

Awesome! I was trying to figure this song out. Good job dude.