Ads

Singing Mountain (Chrono Trigger) Guitar Tab

Submitted: Aug 20, 2013 by Colin_spade

5
Average: 5 (1 vote)
Download | Listen
Game: Chrono Trigger
Composer(s): Nobuo Uematsu, Yasunori Mitsuda, Noriko Matsueda
Style: Arrangement, Fingerstyle
Series: Chrono

AutoScroll: Slow | Medium | Fast
Singing Mountain                                 


Track 1 (Capo 3)
     Q         E  E  E  E  E  E  E  E     E  E  E  E  E  E  E  E   
E||-------||---3-----3--2--3-----5-----|--2-----------------------|
B||--0----||---------0-----------0-----|--------------3--------0--|
G||-------||*-----0-----0-----0-----0--|--------------------------|
D||-------||*--2-----------2-----------|-----0--4--0-----0--4--0--|
A||-------||---------------------------|--2-----------2-----------|
E||-------||---------------------------|--------------------------|


  E  E  E  E  E  E  E  E     E  E  E  E  E  E  E  E   
--0-----0-----0-----2-----|--------------------------|
-----------3--------------|--3-----------------0-----|
--------0-----------0-----|--------------------------|
-----2-----2-----2-----2--|--------0-----------0-----|
--3-----------3-----------|-----2-----2-----2-----2--|
--------------------------|--3-----------3-----------|


  E  E  E  E  E  E  E  E     E  E  E  E  E  E  E  E   
--3-----3--2--3-----5-----|--2-----------------------|
--------------------------|--------------3-----0-----|
--------------------------|--------------------------|
--------------2-----------|-----0--4--0-----0--4--0--|
--------2-----------2-----|--2-----------2-----------|
--0--3-----3-----3-----3--|--------------------------|


  E  E  E  E  E  E  E  E     E  E  E  E  E  E  E  E   
--------3-----2-----0--2--|--0-----------------------|
--1-----------------------|--------0-----------0-----|
--------0-----------0-----|-----0-----0-----0-----0--|
-----2-----2-----2-----2--|--2-----------2-----------|
--3-----------3-----------|--------------------------|
--------------------------|--------------------------|


  E  E  E  E  E  E  E  E     E  E  E  E  E  E  E  E   
--3-----3--2--3-----5-----|--2-----------------------|
--------0-----------0-----|--------------3--------0--|
-----0-----0-----0-----0--|--------------------------|
--2-----------2-----------|-----0--4--0-----0--4--0--|
--------------------------|--2-----------2-----------|
--------------------------|--------------------------|


  E  E  E  E  E  E  E  E     E  E  E  E  E  E  E  E   
--0-----0-----0-----2-----|--------------------------|
-----------3--------------|--3-----------------0-----|
--------0-----------0-----|--------------------------|
-----2-----2-----2-----2--|--------0-----------0-----|
--3-----------3-----------|-----2-----2-----0-----0--|
--------------------------|--3-----------2-----------|


  E  E  E  E  E  E  E  E     E  E  E  E  E  E  E  E   
--3-----3--2--3-----5-----|--2-----------------------|
--------------------------|--------------3-----0-----|
--------------------------|--------------------------|
--------------2-----------|-----0--4--0-----0--4--0--|
--------2-----------2-----|--2-----------2-----------|
--0--3-----3-----3-----3--|--------------------------|


  E  E  E  E  E  E  E  E     E  E  E  E  H           E  E  E  E  E  E  E  E   
--------3-----2-----0--2--|--0--------------------|--7-----7--5--7-----8-----|
--1-----------------------|--------0--------------|-----0-----0-----0-----0--|
--------0-----------2-----|-----2-----2--1--------|--0-----7-----0-----7-----|
-----2-----2--0--4-----4--|--2-----------2--------|--------------------------|
--3-----------------------|-----------------------|--------------------------|
--------------------------|-----------------------|--------------------------|


   E  E  E  E  E  E  E  E     E  E  E  E  E  E  E  E   
--10-----------8-----------|--------3--2--3-----5-----|
---------------------------|--8-----0-----------0-----|
------------------------7--|-----0-----0-----0-----0--|
---0-----7-----0-----7-----|--------------2-----------|
------9-----9-----9-----9--|--7-----------------------|
---------------------------|--------------------------|


  E  E  E  E   E  E  E  E     E  E  E  E  E  E  E  E   
--7------------2-----------|--0-----0-----0-----2-----|
--------0------------0--3--|-----------3--------------|
---------------------------|--------0-----------0-----|
--0--4-----4S--0--4-----4--|-----2-----2-----2-----2--|
---------------------------|--3-----------3-----------|
---------------------------|--------------------------|


  E  E  E  E  E  E  E  E     E  E  E  E  E  E  E  E   
--3-----------------7-----|--8-----7-----5-----3-----|
--------------3-----------|--------------------------|
--------0-----------0-----|--------------------------|
-----0-----0-----0-----0--|--------------------2-----|
--2-----------2-----------|--0-----7--------3-----3--|
--------------------------|-----8-----8--2-----------|


  E  E  E  E  E  E  E  E     E  E  E  E  E  E  E  E   
--2-----------------------|--------------------------|
--------------------------|--------------4-----------|
--------------------------|--------------------2-----|
--------4-----------4-----|--------4--------4-----4--|
--0--6-----6--0--6-----6--|--0--6-----6--2-----------|
--------------------------|--------------------------|


  E  E  E  E  E  E  E  E     
--0-----------2------------||
--------0------------------||
-----0-----0--------2-----*||
-----------------4-----4--*||
--2-----------2------------||
---------------------------||




Duration Legend
---------------
W - whole
H - half
Q - quarter
E - 8th
S - 16th
T - 32nd
X - 64th
. - note dotted
|-n-|  - n-tuplets


Tablature Legend
----------------
L - tied note
x - dead note
g - grace note
(n) - ghost note
> - accentuded note
NH - natural harmonic
AH - artificial harmonic
TH - tapped harmonic
SH - semi harmonic
PH - pitch harmonic
h - hammer on
p - pull off
b - bend
br - bendRelease
pb - preBend
pbr - preBendRelease
brb - bendReleaseBend
\n/ - tremolo bar dip
\n - tremolo bar dive
-/n - tremolo bar Release up
/n\ - tremolo bar inverted dip
/n - tremolo bar return
-\n - tremolo bar Release down
S - shift slide
s - legato slide
/ -  slide into from below or out of upwards
\ -  slide into from above or out of downwards
~ - vibrato
W - wide vibrato
tr - trill
TP - tremolo picking
T - tapping
S - slap
P - pop
< - fade in
^ - brush up
v - brush down
Login or Register to remove this ad.

1 comment on Singing Mountain

Fantastic! Beautiful work.

Fantastic! Beautiful work.