Secret of the Forest (Chrono Trigger) Bass/Guitar Tab

Submitted: Aug 05, 2009 by auriplane (Last updated: Sep 21, 2016)

5
Average: 5 (9 votes)
Download | Listen
Game: Chrono Trigger
Composer(s): Nobuo Uematsu, Yasunori Mitsuda, Noriko Matsueda
Style: 2 or more instruments, Arrangement, Transcription
Series: Chrono

AutoScroll: Slow | Medium | Fast
           Chrono Trigger - Secret of Forest GUITAR & BASS TAB
                      Composed by Yasunori Mitsuda

                 Tabbed by auriplane ([email protected])


This is an arrangement, 'cause I changed stuff and shoved stuff onto 
different instruments & together and so on.  But a lot of it is also
just straight transcription--the bass is identical to the original,
for example.

The instruments are:

    1. Electric guitar (lead guitar / melody, bridge pickup sound)
    2. Jazz electric guitar (or a muted guitar, neck pickup sound)
    3. Acoustic guitar
    4. Fretless bass

All instruments in standard tuning, except the acoustic guitar, which
has a capo on 1, and is in EADEAD tuning, also known as what-the-heck 
tuning. 


                              FIRST GUITAR (Electric)


     W                   W                   W                   W                 
e||-------------------|-------------------|-------------------|-------------------|
B||-------------------|-------------------|-------------------|-------------------|
G||-------------------|-------------------|-------------------|-------------------|
D||-------------------|-------------------|-------------------|-------------------|
A||-------------------|-------------------|-------------------|-------------------|
E||-------------------|-------------------|-------------------|-------------------|


  W                   W                   W                   W                 
-------------------|-------------------|-------------------|-------------------|
-------------------|-------------------|-------------------|-------------------|
-------------------|-------------------|-------------------|-------------------|
-------------------|-------------------|-------------------|-------------------|
-------------------|-------------------|-------------------|-------------------|
-------------------|-------------------|-------------------|-------------------|


   H          Q     E.   T   T      H         Q     Q        H          Q     E.   T  T  
-------------------11-----------|------------------------|------------------------------|
--11b13------11---------15p-14h-|--13--------11----------|-------------------11---------|
--------------------------------|------------------13----|--10b12------10---------14-13-|
--------------------------------|------------------------|------------------------------|
--------------------------------|------------------------|------------------------------|
--------------------------------|------------------------|------------------------------|


   H.            S  S  S  S     H          Q     E.   T   T      H         E.   E.   S  S  
----------------------------|-------------------11-----------|------------13---15---16-18-|
-------------------------11-|--11b13------11---------15p-14h-|--13------------------------|
--12------------10-12-13----|--------------------------------|----------------------------|
----------------------------|--------------------------------|----------------------------|
----------------------------|--------------------------------|----------------------------|
----------------------------|--------------------------------|----------------------------|


   Q      E.   T   T   Q.      S  S     H.           Q       W                   W                 
--18b20---L---18p-16p-15-------L----|--15-----------------|-------------------|-------------------|
---------------------------------18-|---------------------|-------------------|-------------------|
------------------------------------|---------------------|-------------------|-------------------|
------------------------------------|---------------------|-------------------|-------------------|
------------------------------------|---------------------|-------------------|-------------------|
------------------------------------|---------------------|-------------------|-------------------|


  Q    E  E  Q.     E     H.           Q       W                   W                 
-----------------------|--------------------|-------------------|-------------------|
-----------------------|--------------------|-------------------|-------------------|
----------3------------|--------------------|-------------------|-------------------|
--5----3-----5---------|--------------------|-------------------|-------------------|
--------------------6--|--3-----------------|-------------------|-------------------|
-----------------------|--------------------|-------------------|-------------------|


  Q    Q    Q    Q       H.           Q        H         Q     E.   T   T   
----------------------|--------------------|--13--------------16---15p-14h-|
----------------------|--------------------|------------16-----------------|
----------------------|--5-----------------|-------------------------------|
-------5----6----8----|--------------------|-------------------------------|
----------------------|--------------------|-------------------------------|
----------------------|--------------------|-------------------------------|


   H         Q     Q        H         Q     E.   T   T      H         Q     S  S  S  S  
--13--------------------|-------------------------------|------------------------------|
------------16----14----|--13--------------16---15p-14h-|--13-----------------13-14-16-|
------------------------|------------15-----------------|------------15-----L----------|
------------------------|-------------------------------|------------------------------|
------------------------|-------------------------------|------------------------------|
------------------------|-------------------------------|------------------------------|


   H         Q     E.   T   T      H         Q     Q        W                    H.           Q     
--13--------------16---15p-14h-|--13--------------16----|--13----------------|---------------------|
------------16-----------------|------------16----------|--------------------|--13-----------------|
-------------------------------|------------------------|--------------------|---------------------|
-------------------------------|------------------------|--------------------|---------------------|
-------------------------------|------------------------|--------------------|---------------------|
-------------------------------|------------------------|--------------------|---------------------|


    W                   W                   W                   W                   
|--------------------|-------------------|-------------------|--------------------||
|--------------------|-------------------|-------------------|--------------------||
|*-------------------|-------------------|-------------------|-------------------*||
|*-------------------|-------------------|-------------------|-------------------*||
|--------------------|-------------------|-------------------|--------------------||
|--------------------|-------------------|-------------------|--------------------||


  W                   W                  
-------------------|-------------------||
-------------------|-------------------||
-------------------|-------------------||
-------------------|-------------------||
-------------------|-------------------||
-------------------|-------------------||





                              SECOND GUITAR (Electric)

                        




     W                   W                   W                   W                 
e||-------------------|-------------------|-------------------|-------------------|
B||-------------------|-------------------|-------------------|-------------------|
G||-------------------|-------------------|-------------------|-------------------|
D||-------------------|-------------------|-------------------|-------------------|
A||-------------------|-------------------|-------------------|-------------------|
E||-------------------|-------------------|-------------------|-------------------|


  W                   W                   W                   W                 
-------------------|-------------------|-------------------|-------------------|
-------------------|-------------------|-------------------|-------------------|
-------------------|-------------------|-------------------|-------------------|
-------------------|-------------------|-------------------|-------------------|
-------------------|-------------------|-------------------|-------------------|
-------------------|-------------------|-------------------|-------------------|


   W                    W                    W                    W                 
--------------------|--------------------|--------------------|--------------------|
--------------------|--------------------|--------------------|--------------------|
--10----------------|--10----------------|--12----------------|--12----------------|
--11----------------|--11----------------|--13----------------|--13----------------|
--13----------------|--13----------------|--11----------------|--11----------------|
--------------------|--------------------|--------------------|--------------------|


   W                    W                    W                    W                 
--------------------|--------------------|--------------------|--------------------|
--------------------|--------------------|--------------------|--------------------|
--10----------------|--10----------------|--12----------------|--12----------------|
--11----------------|--11----------------|--13----------------|--13----------------|
--13----------------|--13----------------|--11----------------|--11----------------|
--------------------|--------------------|--------------------|--------------------|


                       |---3---|      |---3---|                |---3---|   
   E.   E.   E.   E.   E   E   E      S   S   S  Q.      Q     E   E   E   
--13---13---13----L-------16------|-------------------------------11------|
----------------------16------14--|--13h-14p-13--L-------L----11----------|
----------------------------------|-----------------------------------13--|
----------------------------------|---------------------------------------|
----------------------------------|---------------------------------------|
----------------------------------|---------------------------------------|


   |--3--|                                                               |---3---|   
   S  S  S  Q.      H           W                    E.   E.   E.   E.   E   E   E   
-----------------------------|-------------------|--13---13---13----L-------16------|
-----------------------------|-------------------|----------------------16------14--|
--12-13-12--L-------L--------|-------------------|----------------------------------|
-----------------------------|-------------------|----------------------------------|
-----------------------------|-------------------|----------------------------------|
-----------------------------|-------------------|----------------------------------|


   |---3---|                |---3---|      |--3--|                                        
   S   S   S  Q.      Q     E   E   E      S  S  S  Q.      H           W                 
-------------------------------11------|-----------------------------|-------------------|
--13h-14p-13--L-------L----11----------|-----------------------------|-------------------|
-----------------------------------13--|--12-13-12--L-------L--------|-------------------|
---------------------------------------|-----------------------------|-------------------|
---------------------------------------|-----------------------------|-------------------|
---------------------------------------|-----------------------------|-------------------|


  W                    H        H            W                    Q    Q     Q     Q     
-------------------|---------------------|--------------------|-------------------------|
--7----------------|---7--------7--------|---9----------------|-------------------------|
--8----------------|---8--------8--------|--10----------------|--10----8----10----------|
--8----------------|--11-----------------|--------------------|-------------------11----|
-------------------|---------------------|--------------------|-------------------------|
-------------------|---------------------|--------------------|-------------------------|


  W                    H        H            H        Q     Q        W                 
-------------------|---------------------|-----------------------|--------------------|
--7----------------|---7--------7--------|--11-------------------|--------------------|
--8----------------|---8--------8--------|--10--------8----10----|--------------------|
--8----------------|--11-----------------|-----------------------|--10----------------|
-------------------|---------------------|-----------------------|--------------------|
-------------------|---------------------|-----------------------|--------------------|


    E  E  E  E   E   E  Q        E   E   E   E  E  E   Q        E   E   E   E  E  E   Q     
|---8--8--9--9--11--11--8----|------------------8--8--------|------------------------------|
|----------------------------|--10--10--11--11--------10----|------------------9--9--------|
|*---------------------------|------------------------------|--10--10--11--11--------10----|
|*---------------------------|------------------------------|------------------------------|
|----------------------------|------------------------------|------------------------------|
|----------------------------|------------------------------|------------------------------|


  E  E  E  E   E   E  Q         Q.     E   Q    Q        H         H          
----------------------------||-----------------------|----------------------||
--8--8--9--9--11--11--8-----||--8------9-------------|----------------------||
---------------------------*||------------10----8----|--10--------10--------||
---------------------------*||-----------------------|----------------------||
----------------------------||-----------------------|----------------------||
----------------------------||-----------------------|----------------------||







                              THIRD GUITAR (Acoustic)



Capo on 1, E-A-D-E-A-D tuning.


     S S S S S S S S S S S S S S S S    S S S S S S S S S S S S S S S S  
d||----------------------------------|----------------------------------|
A||--------0-------0-------0-------0-|--------0-------0-------0-------0-|
E||------0-------0-------0-------0---|------0-------0-------0-------0---|
D||----0-------0-------0-------0-----|----0-------0-------0-------0-----|
A||--0-------0-------0-------0-------|--0-------0-------0-------0-------|
E||----------------------------------|----------------------------------|


  S S S  S S S S  S S S S  S S S S  S    S S S  S S S S  S S S S  S S S S  S  
--------------------------------------|--------------------------------------|
--------------------------------------|--------------------------------------|
------2h-3-----2h-3-----2h-3-----2h-3-|------2h-3-----2h-3-----2h-3-----2h-3-|
----0--------0--------0--------0------|----0--------0--------0--------0------|
--2--------2--------2--------2--------|--2--------2--------2--------2--------|
--------------------------------------|--------------------------------------|


  S S S S S S S S S S S S S S S S    S S S S S S S S S S S S S S S S  
----------------------------------|----------------------------------|
--------0-------0-------0-------0-|--------0-------0-------0-------0-|
------0-------0-------0-------0---|------0-------0-------0-------0---|
----0-------0-------0-------0-----|----0-------0-------0-------0-----|
--0-------0-------0-------0-------|--0-------0-------0-------0-------|
----------------------------------|----------------------------------|


  S S S  S S S S  S S S S  S S S S  S    S S S  S S S S  S S S S  S S S S  S  
--------------------------------------|--------------------------------------|
--------------------------------------|--------------------------------------|
------2h-3-----2h-3-----2h-3-----2h-3-|------2h-3-----2h-3-----2h-3-----2h-3-|
----0--------0--------0--------0------|----0--------0--------0--------0------|
--2--------2--------2--------2--------|--2--------2--------2--------2--------|
--------------------------------------|--------------------------------------|


  S S S S S S S S S S S S S S S S    S S S S S S S S S S S S S S S S  
----------------------------------|----------------------------------|
--------0-------0-------0-------0-|--------0-------0-------0-------0-|
------0-------0-------0-------0---|------0-------0-------0-------0---|
----0-------0-------0-------0-----|----0-------0-------0-------0-----|
--0-------0-------0-------0-------|--0-------0-------0-------0-------|
----------------------------------|----------------------------------|


  S S S  S S S S  S S S S  S S S S  S    S S S  S S S S  S S S S  S S S S  S  
--------------------------------------|--------------------------------------|
--------------------------------------|--------------------------------------|
------2h-3-----2h-3-----2h-3-----2h-3-|------2h-3-----2h-3-----2h-3-----2h-3-|
----0--------0--------0--------0------|----0--------0--------0--------0------|
--2--------2--------2--------2--------|--2--------2--------2--------2--------|
--------------------------------------|--------------------------------------|


  S S S S S S S S S S S S S S S S    S S S S S S S S S S S S S S S S  
----------------------------------|----------------------------------|
--------0-------0-------0-------0-|--------0-------0-------0-------0-|
------0-------0-------0-------0---|------0-------0-------0-------0---|
----0-------0-------0-------0-----|----0-------0-------0-------0-----|
--0-------0-------0-------0-------|--0-------0-------0-------0-------|
----------------------------------|----------------------------------|


  S S S  S S S S  S S S S  S S S S  S    S S S  S S S S  S S S S  S S S S  S  
--------------------------------------|--------------------------------------|
--------------------------------------|--------------------------------------|
------2h-3-----2h-3-----2h-3-----2h-3-|------2h-3-----2h-3-----2h-3-----2h-3-|
----0--------0--------0--------0------|----0--------0--------0--------0------|
--2--------2--------2--------2--------|--2--------2--------2--------2--------|
--------------------------------------|--------------------------------------|


  S S S S S S S S S S S S S S S S    S S S S S S S S S S S S S S S S  
----------------------------------|----------------------------------|
--------0-------0-------0-------0-|--------0-------0-------0-------0-|
------0-------0-------0-------0---|------0-------0-------0-------0---|
----0-------0-------0-------0-----|----0-------0-------0-------0-----|
--0-------0-------0-------0-------|--0-------0-------0-------0-------|
----------------------------------|----------------------------------|


  S S S  S S S S  S S S S  S S S S  S    S S S  S S S S  S S S S  S S S S  S  
--------------------------------------|--------------------------------------|
--------------------------------------|--------------------------------------|
------2h-3-----2h-3-----2h-3-----2h-3-|------2h-3-----2h-3-----2h-3-----2h-3-|
----0--------0--------0--------0------|----0--------0--------0--------0------|
--2--------2--------2--------2--------|--2--------2--------2--------2--------|
--------------------------------------|--------------------------------------|


  S S S S S S S S S S S S S S S S    S S S S S S S S S S S S S S S S  
----------------------------------|----------------------------------|
--------0-------0-------0-------0-|--------0-------0-------0-------0-|
------0-------0-------0-------0---|------0-------0-------0-------0---|
----0-------0-------0-------0-----|----0-------0-------0-------0-----|
--0-------0-------0-------0-------|--0-------0-------0-------0-------|
----------------------------------|----------------------------------|


  S S S  S S S S  S S S S  S S S S  S    S S S S S S S  S S S  S S S  S S S  
--------------------------------------|-----------------------------------0-|
--------------------------------------|--------------------------2------2---|
------2h-3-----2h-3-----2h-3-----2h-3-|--------2-----2h-3---2h-3---2h-3-----|
----0--------0--------0--------0------|------0-----0------0-----------------|
--2--------2--------2--------2--------|----2-----2--------------------------|
--------------------------------------|--0----------------------------------|


  S S S S S S S S S S S S S S S S    S S S S S S S S S S S S S S S S  
----------------------------------|----------------------------------|
----------7---------------7-------|----------7---------------7-------|
--------8---8-----------8---8-----|--------8---8-----------8---8-----|
------7-------7-------7-------7---|------6-------6-------6-------6---|
----8-----------8---8-----------8-|----8-----------8---8-----------8-|
----------------------------------|----------------------------------|


  S S S S  S  S S S S S S S  S  S S S    S S S S  S  S S S S S S S  S  S S S  
--------------------------------------|--------------------------------------|
--------5h-7p-5-----------5h-7p-5-----|--------5h-7p-5-----------5h-7p-5-----|
------7---------7-------7---------7---|------7---------7-------7---------7---|
----5-------------5---5-------------5-|----5-------------5---5-------------5-|
--------------------------------------|--------------------------------------|
--------------------------------------|--------------------------------------|


  S S S S S S S S S S S S S S S S    S S S S S S S S S S S S S S S S  
----------------------------------|----------------------------------|
----------7---------------7-------|----------7---------------7-------|
--------8---8-----------8---8-----|--------8---8-----------8---8-----|
------7-------7-------7-------7---|------6-------6-------6-------6---|
----8-----------8---8-----------8-|----8-----------8---8-----------8-|
----------------------------------|----------------------------------|


  S S S S  S  S S S S S S S  S  S S S    S S S S  S  S S S S S S S  S  S S S  
--------------------------------------|--------------------------------------|
--------5h-7p-5-----------5h-7p-5-----|--------5h-7p-5-----------5h-7p-5-----|
------7---------7-------7---------7---|------7---------7-------7---------7---|
----7-------------7---7-------------7-|----6-------------6---6-------------6-|
--------------------------------------|--------------------------------------|
--------------------------------------|--------------------------------------|


    E  E  E  E  E  E  Q       E  E  E  E  E  E  Q       E  E  E  E  E  E  Q     
|---5--5--5--5--5--5--5----|--2--2--2--2--2--2--2----|-------------------------|
|---------7--7--7--7--7----|--0--0--4--4--4--4--4----|--3--3--3--3--3--3--3----|
|*--8--8-------------------|-------------------------|--------5--5--5--5--5----|
|*-------------------------|-------------------------|--3--3-------------------|
|--------------------------|-------------------------|-------------------------|
|--------------------------|-------------------------|-------------------------|


  E  E  E  E  E  E  Q         H        Q    Q       H        H          
--0--0--0--0--0--0--0-----||--0------------------|--------------------||
--------2--2--2--2--2-----||--0--------3----2----|--2--------2--------||
--3--3-------------------*||-----------3----5----|--5--------4--------||
-------------------------*||---------------------|--------------------||
--------------------------||---------------------|--------------------||
--------------------------||---------------------|--------------------||





                         FRETLESS BASS (Or any other bass, I guess)


The bass tab here is identical to the bass tab I already put online, unless I made any 
mistakes.


     H.           E.  S    H.           Q       H.           E.  S    H.           S S S S  
G||---------------------|--------------------|---------------------|-----------------------|
D||---------------------|---------------4----|--3------------L-----|-----------------------|
A||-------------------4-|--------------------|-------------------3-|-----------------------|
E||--2------------L-----|--2-----------------|---------------------|--1--------------1---2-|


  H.           E  E     E.  S E  E  Q    Q       H.           S S S S    E.  S E.  S Q    E.   S  
---------------------|------------------------|-----------------------|--------------------------|
---------------------|-------------------4----|--3------------L-----3-|--------------------------|
------------------4--|------------------------|-----------------3-L---|-------------------3s---0-|
--2------------L-----|--2---2----2--L---------|-----------------------|--1---1-----1-L-----------|


  H.           E.  S    H.           Q       H.           E.  S    H.           S S S S  
---------------------|--------------------|---------------------|-----------------------|
---------------------|---------------4----|--3------------L-----|-----------------------|
-------------------4-|--------------------|-------------------3-|-----------------------|
--2------------L-----|--2-----------------|---------------------|--1--------------1---2-|


  H.           E  E     E.  S E  E  Q    Q       H.           S S S S    E.  S E.  S Q    E.   S  
---------------------|------------------------|-----------------------|--------------------------|
---------------------|-------------------4----|--3------------L-----3-|--------------------------|
------------------4--|------------------------|-----------------3-L---|-------------------3s---0-|
--2------------L-----|--2---2----2--L---------|-----------------------|--1---1-----1-L-----------|


  H.           E.  S    H.           Q       H.           E.  S    H.           S S S S  
---------------------|--------------------|---------------------|-----------------------|
---------------------|---------------4----|--3------------L-----|-----------------------|
-------------------4-|--------------------|-------------------3-|-----------------------|
--2------------L-----|--2-----------------|---------------------|--1--------------1---2-|


  H.           E  E     E.  S E  E  Q    Q       H.           S S S S    E.  S E.  S Q    E.   S  
---------------------|------------------------|-----------------------|--------------------------|
---------------------|-------------------4----|--3------------L-----3-|--------------------------|
------------------4--|------------------------|-----------------3-L---|-------------------3s---0-|
--2------------L-----|--2---2----2--L---------|-----------------------|--1---1-----1-L-----------|


  H        Q    S S E     H        Q    Q       H        Q    E.   S    H        Q    Q     
-----------3----L------|---------------------|----------------3S---0-|---------------------|
--1---------------1----|-----------4---------|-----------3-----------|-----------3---------|
--------------------4--|--2-------------2----|--1--------------------|--1-------------1----|
-----------------------|---------------------|-----------------------|---------------------|


  H        Q    S S E     H        Q    Q       H        Q    Q       H        H         
-----------3----L------|---------------------|----------------5----|--------------------|
--1---------------1----|-----------4---------|-----------5---------|--3-----------------|
--------------------4--|--2-------------2----|--3------------------|-----------3--------|
-----------------------|---------------------|---------------------|--------------------|


    E.  E.  E  E.  S S S E     E.  E.  E.  E.  E  E     E.  E.   E.  E.  E  E   
|------------------5--------|------------------------|----------10---8---------|
|*----------8--L-----8------|----------7---5---------|------8------------8-----|
|*------8--------------8----|------5-----------5-----|--6-------------------6--|
|---6--------------------6--|--3------------------3--|-------------------------|


  E.   E.  E  E.  S  S S E       E.  E.  E  Q    Q       E.  E.  E  H          
-----------------------------||----------8--6----5----|----------------------||
------10--------------------*||------6----------------|--3-------3-----------||
--8--------8--L---8-11-8----*||--4--------------------|------3---------------||
-------------------------8---||-----------------------|-------------1--------||




Duration Legend
---------------
W - whole
H - half
Q - quarter
E - 8th
S - 16th
T - 32nd
. - note dotted
|-n-|  - n-tuplets


Tablature Legend
----------------
L - tied note
h - hammer on
p - pull off
b - bend
s - legato slide

Login or Register to remove this ad.

2 comments on Secret of the Forest

This is great, auri! I think

5

This is great, auri!

I think its recording time! XD

That kicks ass

5

That kicks ass