Secret of the Forest (Chrono Trigger) Guitar Tab

Submitted: Sep 21, 2016 by tomorning

5
Average: 5 (4 votes)
Download | Listen
Game: Chrono Trigger
Composer(s): Nobuo Uematsu, Yasunori Mitsuda, Noriko Matsueda
Style: Arrangement, Fingerstyle
Series: Chrono

AutoScroll: Slow | Medium | Fast
9/19/2016
                                     Secret of Forest
                                       (樹海の神秘)
                               ~ from game "Chrono Trigger" ~

Music by Yasunori Mitsuda (光田 康典)
arranged by to*morning


4th = half up (E,A,D#,G,B,E) + (Capo 2)

Moderato (q=78)


 (Capo 2)
      >                             >    >                                
      S S S S S S S S S S S S S S S S    S S S S S S S S S S S S S S S S  
E ||--------4-------4-------4-------4-|--------4-------4-------4-------4-|
B ||------4-------4-------4-------4---|------4-------4-------4-------4---|
G ||----6-------6-------6-------6---4-|----6-------6-------6-------6-----|
D#||--5-------5-------5-------5-------|--5-------5-------5-------5-------|
A ||----------------------------------|--7-------------------------------|
E ||--0-------------------------------|----------------------------------|


  >                                >    >                                    
  S S S  S S S S  S S S S  S S S S S    S S S  S S S S  S S S S  S S S S  S  
------1h-2-----1h-2-----1h-2-----1-2-|------1h-2-----1h-2-----1h-2-----1h-2-|
----2--------2--------2--------2-----|----2--------2--------2--------2------|
--3--------3--------3--------3-----3-|-----------3--------3--------3--------|
--0----------------------------------|--0-----------------------------------|
-------------------------------------|--------------------------------------|
-------------------------------------|--------------------------------------|


  >                           >      >                                
  S S S S S S S S S S S S S S S S    S S S S S S S S S S S S S S S S  
--------4-------4-------4-------4-|--------4-------4-------4-------4-|
------4-------4-------4-------4---|------4-------4-------4-------4---|
----6-------6-------6-------6-4---|----6-------6-------6-------6-----|
--5-------5-------5-------5-------|--5-------5-------5-------5-------|
----------------------------------|--7-------------------------------|
--0-------------------------------|----------------------------------|


  >                                     >                                   
  S S S  S S S S  S S S S  S S S S S    S S S  S S S S  S S S S  S S S S S  
------1h-2-----1h-2-----1h-2-----1-2-|------1h-2-----1h-2-----1h-2-----1-2-||
----2--------2--------2--------2-----|----2--------2--------2--------2-----||
--3--------3--------3--------3-----3-|-----------3--------3--------3-------||
--0--------------------------0-------|--0----------------------------------||
-------------------------------------|-------------------------------------||
-------------------------------------|-------------------------------------||


  >                                >                                                  
  S S S S S S E  Q    E.   T  T    S S S S Q    Q    Q       H        Q    E.   T  T  
--6--------------4----9p---8p-7-|--6-------4---------2----|--1-------------4p---3p-2-|
--------4-----4-------9---------|--------4-----------4----|--2--------4--------------|
------6-----6---------8---------|------6------------------|--3--------3--------------|
----5-----5---------------------|----5---------------5----|--0-----------------------|
--------------------------------|-------------------------|--------------------------|
--0-----------------------------|--0----------------------|--------------------------|


                           >                          >                       
  H.           S S  S S    Q    Q    Q    E.  T  T    H        E.  S E  S  S  
--1---------------------|--------------------------|--------------------2h-4-|
------------------------|-----------------0--------|-----------4---6---------|
------------------------|---------------------3p-2-|--1--------4-------------|
--0--------------0h-1-3-|--5---------3-------------|-----------5-------------|
---------------4--------|-------4------------------|-------------------------|
------------------------|--0-----------------------|--0----------------------|


                                                                   >                          
                                                                                    |--3--|   
  S S S  S E  S  S Q    E.  S    S S S S S S E  Q    S  S  S S     E.  S E  E  Q    E  E  E   
--6---------------------------|--1-----1-----1--1--------------||----------------------2-----|
------6h-7----9p-7-6--------4-|------2-----1----0------------2-||--4---4----4-------2-----0--|
----6--------------6----3-----|----3-----2------1----1h-3h-4---||-------------------1--------|
--0---------------------------|--0-----------------------------||--------0----------0--------|
------------------------------|--------------------------------||----------------------------|
------------------------------|--------------------------------||--0-------------------------|


                        |--3--|                                                     
  T  T  E  S E  E  Q    E  E  E     E.  S E  E  Q    Q       E.  S E  E  Q    Q     
---------------------------------|-----------2-------4----|--2--------1-------0----|
----------------0----------2-----|-----------2------------|-----------2-------1----|
--3h-4p-3-------1-------1--------|------3-----------------|------3------------2----|
-----------0------------------3--|--2---------------------|--0---------------------|
---------------------------------|--6---------------------|------------------------|
--0------------------------------|------------------------|------------------------|


                      |--3--|                                         
  S S S S S S E  Q    E  E  E     T  T  E  S E  E  S S S  S S S  S S  
-------------------------2-----|-----------------------------------0-|
--4-----4-----4-------2-----0--|----------------0-----------0-2h-4---|
------4-----4---------1--------|--3h-4p-3-------1------1h-3----------|
----0-----0-----------0--------|-----------0---------3---------------|
-------------------------------|-------------------------------------|
--0----------------------------|--0----------------------------------|


                                 >                             >                                
  T  T  E  S E  E  S E.  Q       E.   S S S S S S E.  Q        S S S S S S E  S S S S E.  T  T  
--1h-2p-1-------1----2---4----|--6~---4--------------------||----------------------------------|
-----------2----2--------2----|---------4---7-----6---5----||--4-----4-----4----------7---6p-5-|
-----------3------------------|-----------4---4-------5----||------4-----4----6-----4----------|
--0---------------------------|--0--------------0-----4----||----5-----5----------5------------|
------------------------------|-----------------------5----||--4----------------4--------------|
------------------------------|----------------------------||----------------------------------|


  >                              >                                
  S S S S S S E  S S S S Q       S S S S S S S S S S E  E.  T  T  
------------------------------|----------------------------------|
--4-----4-----4--2-------0----|-------------------------2---1p-0-|
------1-----1----------1------|--3-----3-----3---1---------------|
----3-----3----------3--------|----1-----1-----1---1-------------|
--0----------------0----------|--4---4-----4---------4-----------|
------------------------------|----------------------------------|


  S S S S S S S S S E.  S  S S  S    S S S S S S E  S S S S E.  T  T  
----------------------------------|----------------------------------|
--------------2-----0--------0h-2-|--4-----4-----4----------7---6p-5-|
--3-----4-------3-------1h-3------|------4-----4----6-----4----------|
----3-----3-------0---------------|----5-----5----------5------------|
------6-----6---------------------|--4----------------4--------------|
----------------------------------|----------------------------------|


  >                                                                                            
  S S S S S S E  S S S S Q       S S S S S S S S S S S S Q       S S S S S S S S S S S S Q     
-------------------------2----|-------------------------------|--------6-----6-----6-----6----||
--4-----4-----4--2-----2------|--4-----4-----4-----4-----2----|------2-----2-----2-----2------||
------1-----1--------1--------|------1-----1-----1-----1------|----5-----5-----5-----5--------||
----3-----3--------3----------|----2-----2-----2-----2--------|--0----------------------------||
--0--------------0------------|--1----------------------------|-------------------------------||
------------------------------|-------------------------------|-------------------------------||


    E  E  E  E  E  E  Q       E  E  E  E  E  E  Q       E  E  E  E  E  E  Q     
|--------------------------|-------------------------|-------------------------|
|---------0--0--2--2-------|-------------------------|-------------------------|
|*--3--3--------------3----|--0--0--1--1--3--3--0----|-------------------------|
|*-----0--0--0--0--0--0----|-------------------------|--0--0--1--1--3--3--0----|
|--------------------------|-----3--3--3--3--3--3----|--4----------------------|
|---4----------------------|--1----------------------|--4--4--4--4--4--4--4----|


   E   E  E  E  E  E  Q         Q.     E  Q    Q       E.  S E  E  H          
----------------------------||----------------------|-----------------------||
----------------------------||----------------------|--4--------4--4--------||
----------------1--1-------*||----------------------|------1-------0--------||
---2---2--3--3--------2----*||--2------3--0---------|--0-----------0--------||
---6------1--1--1--1--1-----||--2---------2----4----|-----------------------||
--(6)-----------------------||-----------------6----|-----------------------||  fine...

rev.alpha
Login or Register to remove this ad.

2 comments on Secret of the Forest

This was really cool =)

This was really cool =)

Omg thanks! I've been

Omg thanks! I've been listening to secret of the forest on repeat for the last 2 weeks, perfect timing!