Ads

Schala's Theme (Chrono Trigger) Guitar Tab

Submitted: Feb 27, 2016 by quinndangle2

5
Average: 5 (2 votes)
Download | Listen
Game: Chrono Trigger
Composer(s): Nobuo Uematsu, Yasunori Mitsuda, Noriko Matsueda
Style: Arrangement, Fingerstyle
Series: Chrono

AutoScroll: Slow | Medium | Fast
Schala's Theme
From Chrono Trigger OSV
Composed by Yasunori Mitsuda
Arranged by Brent Quinn

This piece is not a stright transcirption of Schala's Theme from
Chrono Trigger - rather it is fairly liberal arrangement of how 
I like to play the song. If you are looking for a version which is 
more faithful to the actual song, albeit more difficult, i suggest
Stamen47's version. For best results, let the notes ring out.

Standard Tuning
Capo 1
4/4 time
Tempo ~ 85

    E   E   E   E   E   E   E   E     E   E   E   E   E   E   E   E     E   E   E   E   E   E   E   E 
E||---------------------------------|---------------------------------|-5-------------------------------|
B||---------------------------------|---------------------------------|-3-------------------------------|
G||---------------------------------|---------------------------------|-2-------------------------------|
D||---------------------------------|---------------------------------|---------------------------------|
A||-0---------------0-------2-------|-0---------------0-------2-------|-0---------------0-------2-------|
E||-----0---3---0-------0-------3---|-----0---3---0-------0-------3---|-----0---3---0-------0-------3---|


   E   E   E   E   E   E   E   E     E   E   E   E   E   E   E   E     E   E   E   E   E   E   E   E 
E|-3-------------------------------|-0-------------------------------|---------------------------------|
B|-1-------------------------------|-0-------------------------------|-3---------------1-------0-------|
G|-0-------------------------------|---------------------------------|-0-----------------------0-------|
D|---------------------------------|-2-------------------------------|-2---------------2---------------|
A|-0---------------0-------2-------|-0---------------0-------2-------|-0---------------0-------2-------|
E|-----0---3---0-------0-------3---|-----0---3---0-------0-------3---|-----0---3---0-------0-------3---|


   E   E   E   E   E   E   E   E     E   E   E   E   E   E   E   E     E   E   E   E   E   E   E   E 
E|---------------------------------|---------------------------------|---------------------------------|
B|---------------------------------|---------------------------------|---------------------------------|
G|-2-------------------------------|---------------------------------|---------------------------------|
D|-2-------------------------------|---------------------------------|---------------------------------|
A|-0---------------0-------2-------|-0---------------0-------2-------|-0---------------0-------2-------|
E|-----0---3---0-------0-------3---|-----0---3---0-------0-------3---|-----0---3---0-------0-------3---|


   E   E   E   E   E   E   E   E      E   E   E   E   E   E   E   S  S    E   E   E   E   E   E   E   E 
E|---------------------------------||-----------------------------------|-0-------------------------------|
B|-------------------------0-------||-3-----------------------L---1-----|-0---------------1---------------|
G|-2-------0-------2-----------0---||*2------------------------------2--|-----------------2---------------|
D|-----2-------2-------2-----------||*----------------------------------|---------------------------------|
A|-0---------------0-------2-------||-0---------------0-------2---------|-0---------------0-------2-------|
E|-----0---3---0-------0-------3---||-----0---3---0-------0-------3-----|-----0---3---0-------0-------3---|

   T T S  E   E   E   E   E   E   E     E   E   E   E   E   E   E   E     E   E   E   E   E   E   E   E
E|------------------------------------|---------------------------------|---------------------------------|
B|-0h1p0--L-----------------------1---|-3-------------------------------|---------------------------------|
G|--------------------------------0---|-----------------0---------------|-2-----------------------L---2---|
D|-2----------------------------------|-2---------------2---------------|-2-------------------------------|
A|-0------------------0-------2-------|-0---------------0-------2-------|-0---------------0-------2-------|
E|--------0---3---0-------0-------3---|-----0---3---0-------0-------3---|-----0---3---0-------0-------3---|


   E   E   E   E   E   E   E   E     E   E   E   E   E   E   E   E     E   E   E   E   E   E   E   E 
E|-5---------------3-----------1---|-0-------------------------------|-L-------------------------------|
B|-5---------------3-----------1---|-0-------------------------------|-L---------------------------0---|
G|---------------------------------|---------------------------------|-----------------------------0---|
D|---------------------------------|---------------------------------|---------------------------------|
A|-0---------------0-------2-------|-0---------------0-------2-------|-0---------------0-------2-------|
E|-----0---3---0-------0-------3---|-----0---3---0-------0-------3---|-----0---3---0-------0-------3---|


   E   E   E   E   E   E   E   S  S    E   E   E   E   E   E   E   E     T T S  E   E   E   E   E   E   E 
E|-----------------------------------|-0-------------------------------|------------------------------------|
B|-3-----------------------L---1-----|-0---------------1---------------|-0h1p0--L-----------------------1---|
G|-2------------------------------2--|-----------------2---------------|--------------------------------0---|
D|-----------------------------------|---------------------------------|-2----------------------------------|
A|-0---------------0-------2---------|-0---------------0-------2-------|-0------------------0-------2-------|
E|-----0---3---0-------0-------3-----|-----0---3---0-------0-------3---|--------0---3---0-------0-------3---|

								 |--3--|
   E   E   E   E   E   E   E   E     E   E   E   E   E   E   E   S  S  S    E   E   E   E   E   E   E   E 
E|---------------------------------|-5-----------------------L------------|---------------------------------|
B|-3-------------------------------|-5-----------------------L---0--1--0--|---------------------------------|
G|-----------------0---------------|-2-----------------------L------------|-2-----------------------L---0---|
D|-2---------------2---------------|-2-----------------------L------------|-2-----------------------L---0---|
A|-0---------------0-------2-------|-0---------------0-------2------------|-0---------------0-------2-------|
E|-----0---3---0-------0-------3---|-----0---3---0-------0-------3--------|-----0---3---0-------0-------3---|


   E   E   E   E   E   E   E   E     E   E   E   E   E   E   E   E     E   E   E   E   E   E   E   E
E|---------------------------------|---------------------------------|---------------------------------|
B|---------------------------------|-------------------------0-------|---------0-------1-------3-------|
G|-2-------------------------------|-----------------------------0---|-2---------------------------0---|
D|-2-------------------------------|-----------------------------0---|-----2-------2-------2-----------|
A|-0---------------0-------2-------|-0---------------0-------2-------|-0---------------0-------2-------|
E|-----0---3---0-------0-------3---|-----0---3---0-------0-------3---|-----0---3---0-------0-------3---|

								      REPEAT ENDING
   E   E   E   E   E   E   E   E     E   E   E   E   E   E   E   E     E   E   E   E   S  S  S  S  S  S  S  S
E|-0-------3-------5-------7---3---|-5-------------------------------|-----------------------------------------||
B|---------------------------------|-5-------------------------------|-----------------------------------0--1--||
G|-----------------------------0---|-2-------------------------------|--------------------------------2-------*||
D|-----2-------2-------2-------0---|---------------------------------|--------------------------0--2----------*||
A|-0---------------0---------------|-0---------------0-------2-------|-0---------------0--2--3-----------------||
E|-----0---3---0-------0---7---3---|-----0---3---0-------0-------3---|-----0---3---0---------------------------||

  
  FINAL ENDING - Slow to Finish
   E   E   E   E   E   E   E   E     W
E|---------------------------------|-5------||
B|-------------------------3---0---|-5------||
G|-------------------------4---0---|-2------||
D|---------------------------------|-2------||
A|-0---------------0-------2-------|-0------||
E|-----0---3---0-------0-------3---|--------||



Login or Register to remove this ad.