People Who've Abandoned the Will to Live (Chrono Trigger) Guitar Tab

Submitted: Mar 13, 2011 by BacardiBreezer

0
Download | Listen
Game: Chrono Trigger
Composer(s): Nobuo Uematsu, Yasunori Mitsuda, Noriko Matsueda
Style: 2 or more instruments, Transcription
Series: Chrono

AutoScroll: Slow | Medium | Fast
People Who've Abandoned the Will to Live
Chrono Trigger
Composer: Yasunori Mitsuda, Nobuo Uematsu, Noriko Matsueda
Tabbed by Bacardibreezer
3/13/11

Guitar 1

e|-------|--------|---------|---------|
B|-------|--------|---------|---------|
G|--2~---|---1~---|---2~----|---1~----|
D|-------|--------|---------|---------|
A|-------|--------|---------|---------|
E|-------|--------|---------|---------|

e|----------------------------------------------|
B|--0---1----------0----------------------------|
G|----2--------1------------0-------------------|
D|---------------2-------2-----3------0-2-------|
A|----------------------------------4-----1-0---|
E|----------------------------------------------|

e|---------------------10-9---------------------|
B|----------------9-12---------13--------12-----|
G|--------10----9-----------------9~--------8~--|
D|-----12----11---------------------------------|
A|--12------------------------------------------|
E|----------------------------------------------|

e|----------------------------------------------|
B|--0---1----------0----------------------------|
G|----2--------1-----------0--------------------|
D|---------------2------2-----3-------0-2---0---|
A|----------------------------------4-----4-----|
E|----------------------------------------------|

e|----------------------------------------------|
B|----------------------------------------------|
G|----------------------------------------------|
D|--10--9--8--7---6s7---------10--9--8--7--6~---|
A|--------------------7~------------------------|
E|----------------------------------------------|

e|-------------------------------------|
B|-------------------------------------|
G|--14-14-16-17-17-16-14-14-16-11------|
D|-------------------------------------|
A|-------------------------------------|
E|-------------------------------------|

e|-------------------------------------|
B|--10-10-12-13-13-12-10-10-12-7-------|
G|-------------------------------------|
D|-------------------------------------|
A|-------------------------------------|
E|-------------------------------------|

e|---------------------------|------------------------------|
B|--17-----------------------|---17-------------21----------|
G|-----20-19-18-17-17--------|------20-19-18-17----19-------|
D|---------------------------|------------------------------|
A|---------------------------|------------------------------|
E|---------------------------|------------------------------|

e|---------------------------|
B|---------------------------|
G|---------------------------|
D|---------------------------|
A|--11-----------------------|
E|--10-----------------------|

Guitar 2, choir:

e|-------|---------|
B|--10---|--12-----|
G|--10---|--13-----|
D|-------|---------|
A|-------|---------|
E|-------|---------| x10

Rest 3 measures, then

e|------------|--------|--------|------------|
B|-10---------|--------|--------|-----11-----|
G|-11---------|--------|--------|-----11-----|
D|------------|--------|--------|------------|
A|------------|--------|--------|------------|
E|------------|--------|--------|------------|


Login or Register to remove this ad.

1 comment on People Who've Abandoned the Will to Live

e|---------------------------

e|----------------------------------------------|
B|----------------------------------------------|
G|----------------------------------------------|
D|--10--9--8--7---6s7---------10--9--8--7--6~---|
A|--------------------7~------------------------|
E|----------------------------------------------|

should be

e|----------------------------------------------|
B|----------------------------------------------|
G|----------------------------------------------|
D|--10--9--8--7---5s6---------10--9--8--7--6~---|
A|--------------------7~------------------------|
E|----------------------------------------------|

Also, the choir chords have three voices, like this:

e|------------
B|10----12----
G|10----13----
D|14----14----
A|------------
E|------------

The last two chords only have two voices, and they're correct :-)