People Who've Abandoned the Will to Live (Chrono Trigger) Guitar Tab

Submitted: May 24, 2009 by Ticonderoga (Last updated: Dec 04, 2010)

4.5
Average: 4.5 (2 votes)
Download | Listen
Game: Chrono Trigger
Composer(s): Nobuo Uematsu, Yasunori Mitsuda, Noriko Matsueda
Style: Arrangement
Series: Chrono

AutoScroll: Slow | Medium | Fast
		      "People without hope"
			       OR
		"People Who've Abandoned the will to live"

			Chrono Trigger

			Tabbed by Ticonderoga
			Created 7/1/09


	Drop D tuning

e ||--------------------------------|-------------------------------|	
B ||--------------------------------|-------------------------------|
G ||*-------------------------------|-------------------------------|
D ||*-------------------------------|-------------------------------|
A ||--------------------------------|-------------------------------|
D ||-0-------7------10--------------|----0---------------------14---|

e |--------------------------------|--------------------------------|	
B |--------------------------------|--------------------------------|
G |--------------------------------|--------------------------------|
D |--------------------------------|--------------------------------|
A |--------------------------------|--------------------------------|
D |-0-------7------10h11h12--------|----6------0--------------------|

e |--------------------------------|--------------------------------|
B |---0----1------------------0----|--------------------------------|
G |-----2-----------------1--------|-------0------------------------|
D |-------------------------2------|-----2---3---------- 0-2--------|
A |-----0--3---------------------7-|---------3-4-5---- 4----- 1-0---|
D |0------------------0------------|---------------6---0--------0---|

   
e |-------------------4-7----------|---10-9-8-------------7---------|
B |-------3-6-2-5------------------|--------------------------------|
G |--------------------------------|-----------9----------------8---|
D |----3---------------------------|----------------------0---------|
A |----0--3------------------------|------7-------------------------|
D |-----------0--------------------|--------0-----7-10h11----6--0---|




e |--------------------------------|--------------------------------|
B |---0----1------------------0----|--------------------------------|
G |-----2-----------------1--------|-------0------------------------|
D |-------------------------2------|-----2---3---------- 0-2----0---|
A |-----0--3---------------------7-|---------3-4-5---- 4------4-----|
D |0------------------0------------|---------------6---0--------0---|

   
e |--------------------------------|--------------------------------|
B |--------------------------------|--------------------------------|
G |--------------------------------|--------------------------------|
D |-----10-9-8-7-6-----------------|-----10-9-8--7------------------|
A |----------------7-------------7-|----------------11--------------|
D |--------7-10--0-----------------|0-------7-10-11-12--------------|


	   
e |--------------------------------|--------------------------------|
b |--------------------------------|--10-10-12-13-13-12-10-10-12--7-|
G |--------------------------------|--------------------------------|
D |-----7-7-9-10-10-9-7-7-9-4------|--------------------------------|
A |--------------------------------|--------------------------------|
D |--------------------------------|--------------------------------|



e |--------------------------------|--------------------16----------|
B |------17-16-15-14-13-13---------|-----17-16-15-14-13----15-------|
G |--------------------------------|--------------------------------|
D |--------------------------------|--------------------------------|
A |--------------------------------|--------------------------------|
D |--0----------------0------------|--0---------------0-------------|


e |--------------------------------||
B |--------------------------------||
G |--------------------------------||
D |--------------------------------||
A |--11\---------------------------||
D |--12\---------------------------||


Legend
------
\ - slide
h - hammeron
* - repeat
Login or Register to remove this ad.

1 comment on People Who've Abandoned the Will to Live

greate one!

greate one!