Magus' Castle (Chrono Trigger) Guitar Tab

Submitted: Aug 20, 2013 by Colin_spade

5
Average: 5 (2 votes)
Download | Listen
Game: Chrono Trigger
Composer(s): Nobuo Uematsu, Yasunori Mitsuda, Noriko Matsueda
Style: Arrangement, Fingerstyle, Natural harmonics
Series: Chrono

AutoScroll: Slow | Medium | Fast
Mangus' Castle                                  


                                                                Yasunori Mitsuda
Track 1



        NH                              ^                                
        H.              H.              H        Q       Q    Q    Q     
E||--<>12------------|--0------------|----------------|-----------------|
B||------------------|--0------------|--3--------1----|--0--------------|
G||------------------|---------------|--2--------2----|--0---------0----|
D||------------------|---------------|----------------|-------2---------|
A||------------------|---------------|----------------|-----------------|
E||-----0------------|--0------------|--1-------------|--0--------------|


  ^                                                   ^               
  Q    Q    E  E     H.              H        Q       Q    Q    Q     
------------------|---------------|----------------|-------0---------|
------------------|--0------------|----------------|--0--------------|
--2----0-------2--|--0------------|--2-------------|--0---------2----|
--3---------------|---------------|--3-------------|--2--------------|
-------0----3-----|---------------|-----------3----|-----------------|
--1---------------|--0------------|--1-------------|--0--------------|


  ^                 ^              
  Q    Q    Q       H.             
-------0---------|---------------||
--0--------------|--0------------||
--0---------2----|--0------------||
--2--------------|--2------------||
-----------------|---------------||
--0--------------|--0------------||




Duration Legend
---------------
W - whole
H - half
Q - quarter
E - 8th
S - 16th
T - 32nd
X - 64th
. - note dotted
|-n-|  - n-tuplets


Tablature Legend
----------------
L - tied note
x - dead note
g - grace note
(n) - ghost note
> - accentuded note
NH - natural harmonic
AH - artificial harmonic
TH - tapped harmonic
SH - semi harmonic
PH - pitch harmonic
h - hammer on
p - pull off
b - bend
br - bendRelease
pb - preBend
pbr - preBendRelease
brb - bendReleaseBend
\n/ - tremolo bar dip
\n - tremolo bar dive
-/n - tremolo bar Release up
/n\ - tremolo bar inverted dip
/n - tremolo bar return
-\n - tremolo bar Release down
S - shift slide
s - legato slide
/ -  slide into from below or out of upwards
\ -  slide into from above or out of downwards
~ - vibrato
W - wide vibrato
tr - trill
TP - tremolo picking
T - tapping
S - slap
P - pop
< - fade in
^ - brush up
v - brush down
Login or Register to remove this ad.