Magus Battle Theme (Chrono Trigger) Bass/Guitar Tab

Submitted: Feb 01, 2012 by Calebelijah

5
Average: 5 (2 votes)
Download | Listen
Game: Chrono Trigger
Composer(s): Nobuo Uematsu, Yasunori Mitsuda, Noriko Matsueda
Style: 2 or more instruments, Transcription
Series: Chrono

AutoScroll: Slow | Medium | Fast
Title: Magus Theme
Album: Chrono Trigger
Tempo = 240
Lead

Legend
L - tied note
x - dead note
h - hammer on/pull off


                                                                           
E |-------|-------|-------|-------|-------|-------|-------|-------|--12L--|
B |-------|-------|-------|-------|-------|-------|-------|-------|-------|
G |-------|-------|-------|-------|-------|-------|-------|-------|-------|
D |-------|-------|-------|-------|-------|-------|-------|-------|-------|
A |-------|-------|-------|-------|-------|-------|-------|-------|-------|
E |-------|-------|-------|-------|-------|-------|-------|-------|-------|

                                                                               
--12---|-------|----------|-------|-------|-------------|-------------|-------|
-------|--15L--|--15-13---|--12L--|--12---|-------------|-------------|-------|
-------|-------|----------|-------|-------|--14----12L--|--12---------|-------|
-------|-------|----------|-------|-------|-------------|-----15------|--14L--|
-------|-------|----------|-------|-------|-------------|-------------|-------|
-------|-------|----------|-------|-------|-------------|-------------|-------|

                                                                    
-------|----|----|----|----|----|----|--12---|-------------|-------|
-------|----|----|----|----|----|----|-------|--15----13---|--12---|
-------|----|----|----|----|----|----|-------|-------------|-------|
--14---|----|----|----|----|----|----|-------|-------------|-------|
-------|----|----|----|----|----|----|-------|-------------|-------|
-------|----|----|----|----|----|----|-------|-------------|-------|

                                                                            
-------------|-------|-------|-------|-------|--12---|-------------|-------|
-------------|-------|-------|-------|-------|-------|--15----13---|--12---|
--14-12------|-------|-------|-------|--12---|-------|-------------|-------|
--------15---|--14---|--15---|--14---|-------|-------|-------------|-------|
-------------|-------|-------|-------|-------|-------|-------------|-------|
-------------|-------|-------|-------|-------|-------|-------------|-------|

                                              
-------------|-------|-------|-------|-------|
-------------|--12---|--13---|--15s--|--12---|
--14-12-14---|-------|-------|-------|-------|
-------------|-------|-------|-------|-------|
-------------|-------|-------|-------|-------|
-------------|-------|-------|-------|-------|

                                                 
--12L---------------------12------------|-------|
--------------------------------12------|--12---|
-----------------------------------14---|-------|
----------------------------------------|-------|
----------------------------------------|-------|
----------------------------------------|-------|

                                                                             
--10L---------------------10------------|-------------|--10----12---|-------|
--------------------------------10------|--10----12---|-------------|--12L--|
-----------------------------------12---|-------------|-------------|-------|
----------------------------------------|-------------|-------------|-------|
----------------------------------------|-------------|-------------|-------|
----------------------------------------|-------------|-------------|-------|

                                         
----------------------------------------|
--12L---------------------12----10h12---|
----------------------------------------|
----------------------------------------|
----------------------------------------|
----------------------------------------|

                                         
--10L---------------------10------------|
--------------------------------12s15---|
----------------------------------------|
----------------------------------------|
----------------------------------------|
----------------------------------------|

                                                 
--12L---------------------12------------|-------|
--------------------------------12------|--12---|
-----------------------------------14---|-------|
----------------------------------------|-------|
----------------------------------------|-------|
----------------------------------------|-------|

                                                                             
--10L---------------------10------------|-------------|--10----12---|-------|
--------------------------------10------|--10----12---|-------------|--12L--|
-----------------------------------12---|-------------|-------------|-------|
----------------------------------------|-------------|-------------|-------|
----------------------------------------|-------------|-------------|-------|
----------------------------------------|-------------|-------------|-------|

                                                                                
-------|-------|--12----15---|--12---------|-------------|-------------|-------|
--12L--|--12---|-----15------|--------13---|--12----13L--|--13-12------|-------|
-------|-------|-------------|-------------|-------------|--------12---|-------|
-------|-------|-------------|-------------|-------------|-------------|--14L--|
-------|-------|-------------|-------------|-------------|-------------|-------|
-------|-------|-------------|-------------|-------------|-------------|-------|

                                         
----------------------------------------|
----------------------------------------|
----------------------------------------|
--14L---------------------14----12h14---|
----------------------------------------|
----------------------------------------|

                                                          ^
----------------------------------------|----------------------|--12----15---|
----------------------------------------|-----------------x----|-----15------|
--12L---------------------12------------|--14-------------x----|-------------|
--------------------------------14s17---|-----------------x----|-------------|
----------------------------------------|----------------------|-------------|
----------------------------------------|----------------------|-------------|


--12---------|-------------|-------------|--12----15L--|--15-17------|--17---|
--------13---|--12----13L--|--13-15------|-------------|-------------|-------|
-------------|-------------|-------------|-------------|-------------|-------|
-------------|-------------|-------------|-------------|-------------|-------|
-------------|-------------|-------------|-------------|-------------|-------|
-------------|-------------|-------------|-------------|-------------|-------|


--16---|--17------------------------------|-------------------------|
-------|----------------------------------|-------------------------|
-------|----------------------------------|-------------------------|
-------|----------------------------------|-------------------------|
-------|----------------------------------|-------------------------|
-------|----------------------------------|-------------------------|


-------------------|-------------------------|-------------------|
-------------------|-------------------------|-------------------|
-------------------|-------------------------|-------------------|
-------------------|-------------------------|-------------------|
-------------------|-------------------------|-------------------|
-------------------|-------------------------|-------------------|


-------------------------|-------------------|-------------------------|
-------------------------|-------------------|-------------------------|
-------------------------|-------------------|-------------------------|
-------------------------|-------------------|-------------------------|
-------------------------|-------------------|-------------------------|
-------------------------|-------------------|-------------------------|


-------------|-------------|--17----19L--|--19-20------|--19L---19L--|
--17----18L--|--18-20------|-------------|-------------|-------------|
-------------|-------------|-------------|-------------|-------------|
-------------|-------------|-------------|-------------|-------------|
-------------|-------------|-------------|-------------|-------------|
-------------|-------------|-------------|-------------|-------------|


--19L19L-----|--19L--|--19---||
-------------|-------|-------||
-------------|-------|-------||
-------------|-------|-------||
-------------|-------|-------||
-------------|-------|-------||
Login or Register to remove this ad.

2 comments on Magus Battle Theme

A Calebelijah return? **

5

A Calebelijah return? **

Holy shit he's back?

Holy shit he's back?