The Hidden Truth (Chrono Trigger) Guitar Tab

Submitted: Nov 05, 2011 by iamHoustonian

5
Average: 5 (1 vote)
Download | Listen
Game: Chrono Trigger
Composer(s): Nobuo Uematsu, Yasunori Mitsuda, Noriko Matsueda
Style: 2 or more instruments, Transcription
Series: Chrono

AutoScroll: Slow | Medium | Fast
The Hidden Truth
Chrono Trigger
Composer: Yasunori Mitsuda
Tabbed by: iamHoustonian
Date Tabbed: 11/1/2011


Part I
Guitar I

e---------------------------------------------------------------------
B--16-------14-------12-------14-------16-----------------------------
G---------------------------------------------------------------------
D---------------------------------------------------------------------
A---------------------------------------------------------------------
E---------------------------------------------------------------------


Part II
Guitar I

e-18-18--18-18--18-18--20--21----------------
B-16-16--16-16--16-16--18--19----------------
G-------------------------------------------- X 2
D--------------------------------------------
A--------------------------------------------
E--------------------------------------------

Then play this staring at :21

e-18-18--18-18--18-18--19--18--18-18--19-19--18-18--19--18------------
B-16-16--16-16--16-16--18--16--16-16--16-16--16-16--18--16------------
G--------------------------------------------------------------------- X 4
D---------------------------------------------------------------------
A---------------------------------------------------------------------
E---------------------------------------------------------------------


Part I
Guitar II

e----18-16-18----16--------------------------
B-16----------19----18-19--------------------
G-------------------------------------------- X 6
D--------------------------------------------
A--------------------------------------------
E--------------------------------------------


Part II
Guitar II

Starts at :21

e-18-17-18-19--18-17-18-----16--14-----------13-14--------------------\
B-----------------------18----------16-15-16--------12--11-12-11------ \
G---------------------------------------------------------------------  \
D---------------------------------------------------------------------   \
A---------------------------------------------------------------------    \
E---------------------------------------------------------------------     \
                                                                             X 2
e-18-17-18-19--18-17-18-----16--14-----------13-14--------------------     /
B-----------------------18----------16-15-16--------16----------------    /
G---------------------------------------------------------------------   /
D---------------------------------------------------------------------  /
A--------------------------------------------------------------------- /
E---------------------------------------------------------------------/

Then end with

e--16-------------
B--15-------------
G----------------- 
D-----------------
A-----------------
E-----------------

Login or Register to remove this ad.