Frog's Theme (Chrono Trigger) Guitar Tab

Submitted: Feb 24, 2016 by chakalz (Last updated: Mar 26, 2016)

5
Average: 5 (2 votes)
Download | Listen
Game: Chrono Trigger
Composer(s): Nobuo Uematsu, Yasunori Mitsuda, Noriko Matsueda
Style: Arrangement, Fingerstyle
Series: Chrono

AutoScroll: Slow | Medium | Fast
Chrono Trigger - Frog
Composed by Yasunori Mitsuda
Arranged and tabbed by chakalz


Standard tuning (EADGBE)

||-----------------------|----------------------|---------------------|
||o-----------------0--1-|-0---0----------------|-----------------0--1|
||--2-0-2------2---------|---2---0--------------|-2-0-2------2--------|
||--------2--------------|-------------------0--|-------2-------------|
||o-0-----0----0----0----|----------------------|---------------------|
||-----------------------|-3-----3----3333------|-1-----1----1----1---|



|----------------------|----------------------|------------------------|
|---1-3-0--------------|-----------------0--1-|-0---0-----------3p1p0--|
|-4--------------------|-2-0-2------2---------|---2---0----------------|
|-----------------2----|-------2--------------|-----------------0------|
|----------------------|-0-----0----0----0----|------------------------|
|-3-----3--3333--------|----------------------|-3-----3--3333---3------|



|----------------------|-----------------------|------------------5-----|
|-------0----1----0----|-----------------------|3/5--5-5-----5----------|
|-2p0h2----------------|-2p0h2-2p0h2-2---------|---------5-7------------|
|----------------------|-2-----2-----2---------|------------------------|
|----------------------|-0-----0-----0---------|0------0-----0----0-----|
|-1-----1----3----3----|-----------------12\4--|------------------------|



|-3--------0-----------|----------------------|-----------------0-----3--|
|-1--------------1-----|----------------------|---0-1-0-1-3-1-3---3/5----|
|-0--------------------|-2--------------------|-2-----------2------------|
|----------------------|-3--------------------|--------------------------|
|-3--3333----3---------|-3--------------------|--------------------------|
|/\--------------------|-1---1111---1-1---1---|-3-----3-----3-----0------|



|------------------5----|-5/7----8-7--5----3---|4/5-------------|
|3/5--5-5-----5---------|----------------------|----------------|
|---------5-7-----------|----------------------|----------------|
|-----------------------|----------------------|----------------|
|0------0-----0----0----|----------------------|----------------|
|-----------------------|-3---3-------3----3---|1---1111--11--1-|



|-5-----------5/7--------|-8--8-8-7------------0----|4/5--5-5-3-1-0-----------|
|------5-5-5-------9-9---|----------10-8---5--------|-------------------------|
|------7-7-7--7/9--9-9---|-------------0-------0----|-------------------2-----|
|------------------------|--------------------------|-------3---------2-------|
|------------------------|-8----8-------------------|---------------0---------|
|-0-----------0----------|--------------------------|1------------------------|



|-8--8-8-7------------0----|
|----------10-8---5--------|
|-------------0-------0----|
|--------------------------|
|-8----8-------------------|
|--------------------------|



|-5----------5/7---------|-8--8-8-7------------0-----|
|------5-5-5-------9-9---|----------10-8---5---------|
|------7-7-7-------9-9---|-------------0-------0-----|
|------------------------|---------------------------|
|-5----------5/7---------|-8----8--------------------|
|------------------------|---------------------------|



|4/5--5-5-3-1-0-----0----|-8--8-8-7-8--10---7----|-7----------5-----------||
|-----------------3------|-----------------------|------5-5-5-5----------o||
|------------------------|-------------0----0----|------5-5-5-5-----------||
|-------3----------------|-----------------------|------------------------||
|---------------0--------|-8----8----------------|-0----------0----------o||
|1-----------------------|-----------------------|------------------------||
Login or Register to remove this ad.