Festival of Stars (Chrono Trigger) Bass/Guitar Tab

Submitted: Aug 01, 2012 by hslesperance

0
Download | Listen
Game: Chrono Trigger
Composer(s): Nobuo Uematsu, Yasunori Mitsuda, Noriko Matsueda
Style: 2 or more instruments, Transcription
Series: Chrono

AutoScroll: Slow | Medium | Fast
Festival of Stars
Chrono Trigger
Composed by Yasunori Mitsuda
Tabbed by hslesperance
8/1/12

Standard Tuning




Guitar 1

    E E E E E S S E E   E E S S E Q.   E   E E E E E S S E E   E E E S S H    3x
||--------0-3-2-0-2---|---0--------------|-------------------|-----------0----||
||--3---3-----------3-|-2---3-2-3--------|-------3-3-2-0-----|---3-3-2-3------||
||o---2---------------|-----------2------|-0---0---------2---|-0-------------o||
||o-------------------|----------------4-|---4-------------4-|---------------o||
||--------------------|------------------|-------------------|----------------||
||--------------------|------------------|-------------------|----------------||


  E  E     E  E  H             E  E     E  E  H
|----------------------------|----------------0-----------|
|----3-----3--0--2-----------|----3-----3--0--2-----------|
|----4-----4--0--2-----------|----4-----4--0--------------|
|----------------------------|----------------------------|
|----------------------------|----------------------------|
|----------------------------|----------------------------|


  E  E     E  E  S  S  E  E  E    Q     Q     S  S  S  S  Q
|----------------3--2--0--0----|--0-----0-----0--2--0--2--0--|
|----3-----3--0--------------3-|--2-----2-----------------2--|
|----4-----4--0----------------|-----------------------------|
|------------------------------|-----------------------------|
|------------------------------|-----------------------------|
|------------------------------|-----------------------------|


  E  E     E  E  H             E  E     E  E  H             E  E     E  E  S  S  E  E  E
|----------------------------|----------------0-----------|----------------3--2--0--0----|
|----3-----3--0--2-----------|----3-----3--0--2-----------|----3-----3--0--------------3-|
|----4-----4--0--2-----------|----4-----4--0--------------|----4-----4--0----------------|
|----------------------------|----------------------------|------------------------------|
|----------------------------|----------------------------|------------------------------|
|----------------------------|----------------------------|------------------------------|


   Q        E.    S  E  E  S S  E    Q        E.    S  E  E  Q
|--0--------0-----0--0--0-------0-|--0--------0-----0-------------|
|--2--------2-----2--2--2--0----2-|--2--------2-----2--2--0-------|
|----------------------------2----|--------------------2--0--2----|
|---------------------------------|--------------------------2----|
|---------------------------------|-------------------------------|
|---------------------------------|-------------------------------|


  W                  W                  W                  W
|------------------|------------------|------------------|------------------|
|------------------|------------------|------------------|------------------|
|------------------|------------------|------------------|------------------|
|------------------|------------------|------------------|------------------|
|------------------|------------------|------------------|------------------|
|------------------|------------------|------------------|------------------|


  W                  W                  W                  W
|------------------|------------------|------------------|------------------|
|------------------|------------------|------------------|------------------|
|------------------|------------------|------------------|------------------|
|------------------|------------------|------------------|------------------|
|------------------|------------------|------------------|------------------|
|------------------|------------------|------------------|------------------|


  W                  W
|------------------|---------------------|
|------------------|---------------------|
|------------------|---------------------|
|------------------|---------------------|
|------------------|---------------------|
|------------------|---------------------|

            |-3-|                                    |-3-|
  E E E E E S S S E E   +E  E E E +H       E E E E E S S S E E   +E  Q  E H
|---------------------|------------------|-------------------3-|-(3)-2--0-2----|
|---3-----------------|------------------|---3-----------------|---------------|
|-----2-4-5-4-5-4-2-0-|-(0)-0-2----------|-----2-4-5-4-5-4-2---|---------------|
|---------------------|---------4-(4)----|---------------------|---------------|
|---------------------|------------------|---------------------|---------------|
|---------------------|------------------|---------------------|---------------|


  W                  W                  W                  W
|------------------|------------------|------------------|-----------------*|
|------------------|------------------|------------------|-----------------*|
|------------------|------------------|------------------|-----------------*|
|------------------|------------------|------------------|-----------------*|
|------------------|------------------|------------------|-----------------*|
|------------------|------------------|------------------|-----------------*|




Guitar 2

  W                  W                  W                  W
|------------------|------------------|------------------|------------------|
|------------------|------------------|------------------|------------------|
|------------------|------------------|------------------|------------------|
|------------------|------------------|------------------|------------------|
|------------------|------------------|------------------|------------------|
|------------------|------------------|------------------|------------------|


   E.    E.    S  S  E.    E.    E    E  E  S  S  E  H
|-17----17----15-14----------------|-14-15-14---------------|
|-------------------17----15----17-|----------17-15---------|
|----------------------------------|----------------14------|
|----------------------------------|------------------------|
|----------------------------------|------------------------|
|----------------------------------|------------------------|


  E  S  S  E  E  E  S  S  E  E    E  E  E  S  S  H
|------------------------------|----------------------|
|------------15-15-14----------|----15-15-14-15-17----|
|---------14----------16-14----|----------------------|
|---16-17-------------------16-|-17-------------------|
|------------------------------|----------------------|
|------------------------------|----------------------|


  W                  W                  W                  W
|------------------|------------------|------------------|------------------|
|------------------|------------------|------------------|------------------|
|------------------|------------------|------------------|------------------|
|------------------|------------------|------------------|------------------|
|------------------|------------------|------------------|------------------|
|------------------|------------------|------------------|------------------|


  W                  W                  W                  W
|------------------|------------------|------------------|------------------|
|------------------|------------------|------------------|------------------|
|------------------|------------------|------------------|------------------|
|------------------|------------------|------------------|------------------|
|------------------|------------------|------------------|------------------|
|------------------|------------------|------------------|------------------|


  W                            W                            W
|----------------------------|----------------------------|------------------------------|
|----------------------------|----------------------------|------------------------------|
|----------------------------|----------------------------|------------------------------|
|----------------------------|----------------------------|------------------------------|
|----------------------------|----------------------------|------------------------------|
|----------------------------|----------------------------|------------------------------|


   W                                 W
|---------------------------------|-------------------------------|
|---------------------------------|-------------------------------|
|---------------------------------|-------------------------------|
|---------------------------------|-------------------------------|
|---------------------------------|-------------------------------|
|---------------------------------|-------------------------------|


   W                  E  E  E  E  +E   E  E  E    +E   Q    Q    Q    E    +E   E  H.
|-17---------------|----17-15-14-(14)-14-------|----------------14---14-|-(14)--------------------|
|------------------|---------------------17-15-|-(15)-15---17-----------|------17-17--------------|
|------------------|---------------------------|------------------------|-------------------------|
|------------------|---------------------------|------------------------|-------------------------|
|------------------|---------------------------|------------------------|-------------------------|
|------------------|---------------------------|------------------------|-------------------------|


   W                  E  E  E  E  +E   E  E  E    +E   Q    Q    Q    E    +E   E  Q    Q    Q
|-17---------------|----17-15-14-(14)-14-------|----------------14---14-|-(14)--------------------|
|------------------|---------------------17-15-|-(15)-15---17-----------|------17-17---15---17----|
|------------------|---------------------------|------------------------|-------------------------|
|------------------|---------------------------|------------------------|-------------------------|
|------------------|---------------------------|------------------------|-------------------------|
|------------------|---------------------------|------------------------|-------------------------|


   q   H.             W
|------------------|---------------------|
|-15---------------|---------------------|
|------------------|---------------------|
|------------------|---------------------|
|------------------|---------------------|
|------------------|---------------------|


  W                  W                  W                  W
|------------------|------------------|------------------|------------------|
|------------------|------------------|------------------|------------------|
|------------------|------------------|------------------|------------------|
|------------------|------------------|------------------|------------------|
|------------------|------------------|------------------|------------------|
|------------------|------------------|------------------|------------------|


  W                  W                  W                  W
|------------------|------------------|------------------|-----------------*|
|------------------|------------------|------------------|-----------------*|
|------------------|------------------|------------------|-----------------*|
|------------------|------------------|------------------|-----------------*|
|------------------|------------------|------------------|-----------------*|
|------------------|------------------|------------------|-----------------*|




Guitar 3

  W                  W                  W                  W
|------------------|------------------|------------------|------------------|
|------------------|------------------|------------------|------------------|
|------------------|------------------|------------------|------------------|
|------------------|------------------|------------------|------------------|
|------------------|------------------|------------------|------------------|
|------------------|------------------|------------------|------------------|


  W                  W                  W                  W
|------------------|------------------|------------------|------------------|
|------------------|------------------|------------------|------------------|
|------------------|------------------|------------------|------------------|
|------------------|------------------|------------------|------------------|
|------------------|------------------|------------------|------------------|
|------------------|------------------|------------------|------------------|


   E.    E.    S  S  E.    E.    E    E  E  S  S  E  H
|-17----17----15-14----------------|-14-15-14---------------|
|-------------------17----15----17-|----------17-15---------|
|----------------------------------|----------------14------|
|----------------------------------|------------------------|
|----------------------------------|------------------------|
|----------------------------------|------------------------|


  E  S  S  E  E  E  S  S  E  E    E  E  E  S  S  H
|------------------------------|----------------------|
|------------15-15-14----------|----15-15-14-15-17----|
|---------14----------16-14----|----------------------|
|---16-17-------------------16-|-17-------------------|
|------------------------------|----------------------|
|------------------------------|----------------------|


  E  S  S  E  E  S  S  E  Q    E  S  S  E  E  S  S  E  Q
|----------------------------|----------------------------|
|---15-14-15----14-----------|---15-14-15----14-15-17-17--|
|------------16----16-14-14--|------------16--------------|
|----------------------------|----------------------------|
|----------------------------|----------------------------|
|----------------------------|----------------------------|


  E  S  S  E  E  S  S  E  E  E    E  E  E  E  S  S  S  S  Q
|---------------15-14----------|-----------------------------|
|---15-14-15----------17-17-15-|-14-15-17-14-----------------|
|------------16----------------|-------------14-16-14-16-14--|
|------------------------------|-----------------------------|
|------------------------------|-----------------------------|
|------------------------------|-----------------------------|


  E  S  S  E  E  S  S  E  Q    E  S  S  E  E  S  S  E  Q    E  S  S  E  E  S  S  E  E  E
|----------------------------|----------------------------|---------------15-14----------|
|---15-14-15----14-----------|---15-14-15----14-15-17-17--|---15-14-15----------17-17-15-|
|------------16----16-14-14--|------------16--------------|------------16----------------|
|----------------------------|----------------------------|------------------------------|
|----------------------------|----------------------------|------------------------------|
|----------------------------|----------------------------|------------------------------|


   E  S  S  E   E    E  E  E    E    E  S  S  E   E    E  E  Q
|--------------14---15-14---------|-------------------------------|
|-17-17-15-17-------------17---15-|-17-17-15-17--15---14----------|
|---------------------------------|----------------------16-14----|
|---------------------------------|-------------------------------|
|---------------------------------|-------------------------------|
|---------------------------------|-------------------------------|


   e e e e e e e e    e  e  e  e   e   e  e  e     e   e e  e e  e e  e     e   e  e  e  e e e e
|------------------|---------------------------|-------------------7----|----------9--7-----------|
|------7---7---7---|--------8------8------8----|---------9----9-10------|---------------10-8-7----|
|------------------|---------------------------|------------------------|-------9--------------9--|
|----7---7---7---7-|-----9-----9-------9-----9-|-------9----9---------9-|---7---------------------|
|--5---------------|-10------------------------|---7--------------------|-------------------------|
|------------------|---------------------------|------------------------|-------------------------|


   e e e e e e e e    e  e  e  e   e   e  e  e     e   e e  e e  e e  e     e   e  e e  e e  e e
|------------------|---------------------------|-------------------7----|----------9---10---12----|
|------7---7---7---|--------8------8------8----|---------9----9-10------|-------------------------|
|------------------|---------------------------|------------------------|-------9----9----9----9--|
|----7---7---7---7-|-----9-----9-------9-----9-|-------9----9---------9-|---7---------------------|
|--5---------------|-10------------------------|---7--------------------|-------------------------|
|------------------|---------------------------|------------------------|-------------------------|


   q   q    q   q     q   q   e  e  e  e
|-10--10---10--10--|-10--10--15-14-12-14-|
|------------------|---------------------|
|------------------|---------------------|
|------------------|---------------------|
|------------------|---------------------|
|------------------|---------------------|


  W                  W                  W                  W
|------------------|------------------|------------------|------------------|
|------------------|------------------|------------------|------------------|
|------------------|------------------|------------------|------------------|
|------------------|------------------|------------------|------------------|
|------------------|------------------|------------------|------------------|
|------------------|------------------|------------------|------------------|


  W                  W                  W                  W
|------------------|------------------|------------------|-----------------*|
|------------------|------------------|------------------|-----------------*|
|------------------|------------------|------------------|-----------------*|
|------------------|------------------|------------------|-----------------*|
|------------------|------------------|------------------|-----------------*|
|------------------|------------------|------------------|-----------------*|




Bass

    q  q  q  q    q  q  e e e e   q  q  q  q    q  q  e e e e   3x
||--------------|---------------|-------------|-----------------||
||o-0-----0-----|-0-----0-------|----0-----2--|----0-----------o||
||o----0-----0--|----0----4-2-0-|-------0-----|-------0-0-2-4--o||
||--------------|---------------|-3-----------|-3---------------||


  q  e e q  e e   q  e e q  e e   q  e e q  e e   q  e e e e e e
|---------------|---------------|-----------2---|--------2-0------|
|----0------2---|----0------2---|----0---0----0-|----2-------4-2--|
|--------0----0-|--------0----0-|---------------|-0----0----------|
|-3----3--------|-3----3--------|-3----3--------|-----------------|


  q  e e q  e e   q  e e q  e e   q  e e q  e e
|---------------|---------------|-----------2---|
|----0------2---|----0------2---|----0---0----0-|
|--------0----0-|--------0----0-|---------------|
|-3----3--------|-3----3--------|-3----3--------|


  q  e. s e e e e   q  e. s e e e e
|----0--------0---|-------------------|
|-----------------|----2--------------|
|-3-----3-3-3---3-|-0-----0-0---------|
|-----------------|-----------3-2-0---|


  Q  H    E E   Q  H    E E   Q  H    E E   Q  H.
|-------------|-------------|-------------|----------|
|-0---------0-|-------------|-2---------2-|----------|
|-------------|-------------|-------------|-0--------|
|-------------|-3---------3-|-------------|----------|


  Q  H    E E   Q  H    E E   Q  H    E E   Q  H    Q
|-------------|-------------|-------------|-------------|
|-0---------0-|-------------|-2---------2-|---------2---|
|-------------|-------------|-------------|-0-----------|
|-------------|-3---------3-|-------------|-------------|


  q  q  E E E E   q  q  E E E E
|---------------|---------------|
|-0--0--0---0---|-0--0--0-------|
|---------0---0-|---------4-2-0-|
|---------------|---------------|


  q  q  q  q    q  q  E E E E   q  q  q  q    q  q  E E  E E
|-------------|-----------5-7-|-------------|-------9-7-------|
|-0--0--0--0--|-0--0--0-7-----|-0--0--0--0--|-0--0------10-7--|
|-------------|---------------|-------------|-----------------|
|-------------|---------------|-------------|-----------------|


  q  q  q  q    q  E E E E E E   q  E E q  E E   q  E E E E E E
|-------------|----7---5---4---|---------------|-----------------*|
|-0--0--0--0--|-0----7---7---7-|------5--------|------2----------*|
|-------------|----------------|-3--3----------|----------0-2-4--*|
|-------------|----------------|--------3--3-4-|-5--5------------*|

W - whole
H - half
Q - quarter
E - 8th
S - 16th
+ - note tied to previous
. - note dotted

Uncapitalized letters represent notes that are staccato (1/2 duration)
Irregular groupings are notated above the duration line
Login or Register to remove this ad.

2 comments on Festival of Stars

Late Comment but....

Is it just me or does parts of this tab not match up with other areas?
some parts are longer and some parts are shorter

Did you catch the 3x next to

Did you catch the 3x next to the first four measures of Guitar 1 and the Bass? Those four measures are played three times before moving on the the next group of measures.