Epoch ~Wings That Cross Time~ (Chrono Trigger) Guitar Tab

Submitted: Oct 28, 2010 by BacardiBreezer (Last updated: Oct 18, 2011)

3.5
Average: 3.5 (2 votes)
Download | Listen
Game: Chrono Trigger
Composer(s): Nobuo Uematsu, Yasunori Mitsuda, Noriko Matsueda
Style: 2 or more instruments, Alternate picking, Transcription
Series: Chrono

Click here for a video example.

AutoScroll: Slow | Medium | Fast
Epoch ~Wings That Cross Time~
Chrono Trigger
Composer: Yasunori Mitsuda, Nobuo Uematsu, Noriko Matsueda
Tabbed by Bacardibreezer
10/28/10 Updated 10/17/11

Guitar 1 - Lead

Rest one measure

e|------------------------------------|---------------------------------------|
B|---------------------8--------------|-------------------8-10----10~----8~---|
G|---------7-10~----10----7-7-9-7-----|---------7-10---10------10-------------|
D|--8-8-10-----------------------10~--|--8-8-10-------------------------------|
A|------------------------------------|---------------------------------------|
E|------------------------------------|---------------------------------------|

e|----------8-10~---------8------------------------|--------------------------------|
B|--8-10-11------------10---8----8-------------8~--|--------------------------------|
G|----------------------------10---10~----7-10-----|--10---7~----10--9--7------7~---|
D|-------------------------------------------------|-----------------------10-------|
A|-------------------------------------------------|--------------------------------|
E|-------------------------------------------------|--------------------------------|

x2

Rest one measure

e|--------------------------|-----------------------------------|
B|--11-9--------------------|-----------------------------------|
G|-------11-10--8-----8-----|--------6----------6----------8~---|
D|-----------------11----8~-|---6-8--------6-8--------6-8-------|
A|--------------------------|-----------------------------------|
E|--------------------------|-----------------------------------|

Rest one measure

e|-------9--------------------|------------------------------9----9-10-11~---|
B|--11-9---11-9-11------------|--------------------9-11-9-11---11------------|
G|-------------------8----8~--|------8-10-11-10-11---------------------------|
D|---------------------11-----|---11-----------------------------------------|
A|----------------------------|----------------------------------------------|
E|----------------------------|----------------------------------------------|





Guitar 2 - Rhythm

e|-----------------------------------------------------------------------------------------|
B|--11-10--11--10--------------------------------------------------------------------------|
G|------------------12--10------12-10--12--10-------10----12-12-12----------12-12-----12---|
D|----------------------------------------------12--------------------10-12----------------|
A|-----------------------------------------------------------------------------------------|
E|-----------------------------------------------------------------------------------------|

e|--8-8-8-----8--8--8-----10--8-----7--8-----8-8--8---8-8-8--|-----8----8--8--8-----8---8------|
B|-----------------------------------------------------------|---6-------------------------11--|
G|-----------------------------------------------------------|-7-------------------------------|
D|-----------------------------------------------------------|---------------------------------|
A|-----------------------------------------------------------|---------------------------------|
E|-----------------------------------------------------------|---------------------------------|

e|------8-----------------5----------------------8----|----------------------------------------------------|
B|--11------11-10-------6------8--8-------10--10---8--|------------8--8----8-----10-10-10--10--------7-10--|
G|--------------------7--------------9----------------|--10--10------------------------------------7-------|
D|----------------------------------------------------|----------------------------------------------------|
A|----------------------------------------------------|----------------------------------------------------|
E|----------------------------------------------------|----------------------------------------------------|

e|--8-8-8-----8--8--8-----10--8-----7--8-----8-8--8---8-8-8--|-----8----8--8--8-----8---8------|
B|-----------------------------------------------------------|---6-------------------------11--|
G|-----------------------------------------------------------|-7-------------------------------|
D|-----------------------------------------------------------|---------------------------------|
A|-----------------------------------------------------------|---------------------------------|
E|-----------------------------------------------------------|---------------------------------|

e|------8-----------------5----------------------8----|----------------------------------------|
B|--11------11-10-------6------8--8-------10--10---8--|------------8--8----8-----10-10-10--10--|
G|--------------------7--------------9----------------|--10--10--------------------------------|
D|----------------------------------------------------|----------------------------------------|
A|----------------------------------------------------|----------------------------------------|
E|----------------------------------------------------|----------------------------------------|

e|------------------------------------------------------18-14~--------13--14--13---------|
B|--13/15-----------------------------------------14-16-----------16--------------16--14-|
G|---------14-15~----13-15-15---13-15-15----13-16----------------------------------------|
D|---------------------------------------------------------------------------------------|
A|---------------------------------------------------------------------------------------|
E|---------------------------------------------------------------------------------------|

e|-------------------------|
B|-----14------14-15-16~---|
G|--15---------------------|
D|-------------------------|
A|-------------------------|
E|-------------------------|

e|--------------------------------------|-----13-----14--13-----------------------|------------|
B|----------14--13----------13--16-16~--|--16----16----------16--14--16-----------|------------|
G|--14/15-----------14--15--------------|--------------------------------15--14~--|-----L------|
D|--------------------------------------|-----------------------------------------|------------|
A|--------------------------------------|-----------------------------------------|------------|
E|--------------------------------------|-----------------------------------------|------------|
Login or Register to remove this ad.