Ads

Corridors Of Time (Chrono Trigger) Guitar Tab

Submitted: Jun 23, 2018 by JellySword

5
Average: 5 (6 votes)
Download | Listen
Game: Chrono Trigger
Composer(s): Nobuo Uematsu, Yasunori Mitsuda, Noriko Matsueda
Style: Arrangement, Fingerstyle
Series: Chrono

AutoScroll: Slow | Medium | Fast
Chrono Trigger
Corridors of Time
By Yasunori Mitsuda
Tabbed by Jellysword

I've been working on this one for quite a bit 
and eventually mean to upload a video playing 
it as well.

Tempo = 110
Tuning: DADGBE (Drop D)

		 v
     E  E  E  E  E  E  E  E       E  E  E  E  E  E  E  E       E  E  E  E  E  E  E  E       E  E  E  E  E  E  E  E
E |--------------2-------------|--0-----------2-------------|--------------2-------------|--0-----------2--------2----|
B |-----------2-----------2----|-----------2-----------2----|-----------2-----------2----|-----------2-----------2----|
G |--------4-----------4-------|--------4-----------4-------|--------4-----------4-------|--------4-----------4--4----|
D |-----4-----------4----------|-----4-----------4----------|-----4-----------4----------|-----4-----------4-----4----|
A |--5-------------------------|----------------------------|--5-------------------------|-----------------------5----|
D |----------------------------|----------------------------|----------------------------|----------------------------|

Segno
  E  S S E  E  E  E  E  E       E  S S E  E  E  E  E  E       E  S S E  E  E  E  E  E       E  S S E  E  E  E  E  E
---------------2-------------|--0------------2-------------|-----------------------------|-----------------------------|
------------2--------0--2----|------------2--------0--2----|---------------7-------------|--5------------7--------2----|
---------4-------------------|---------4-------------------|---------4--6--------4--6----|---------4--6--------4-------|
-----4------------4-----0----|-----4------------4-----0----|-----4------------4-----4----|-----4------------4----------|
--5------------------0-------|---------------------0-------|--4------------------4-------|-----------------------------|
--0----0----0----------------|--0----0----0----------------|--4----4----4----------------|--4----4----4--------2-------|

  E  S S E  E  E  E  E  E       E  E  E S S E  S S E  S S       E  S S E  E  E  E  E  E       E  S S E  E  E  E  E  E
--4----4---------------------|------------4-5----7----5-4----|-----------------------------|-----------------------------|
------------7--7-----0-------|--5-------7----------0---------|--7----7----5--5-------------|--4------------5-------------|
---------4--------------6----|--------4----------------------|---------4-----------4--6----|---------4--6--------4--6----|
-----4------------4-----0----|-----4-----------4------0------|-----4------------4-----4----|-----4------------4-----4----|
---------------------0-------|---------------------0---------|--4------------------4-------|---------------------4-------|
--0---------0----------------|--0-------0--------------------|--4---------4----------------|--4---------4----------------|


  E  S S E  E  E  E  E  E       E  E  E  E  E  S S E  E        E  S S E  E  E  E  E  E        E  E  E  E  E  S S E  E  
--4----4---------------------|--0---------------------------|-------9----9-----------------|-----------9--12---9---------|
------------7--7-----0-------|--------0-----9----10---12----|--12-----------11-------------|------------------------10---|
---------4--------------6----|-----------11-----------------|------------------------------|--9--------------------------|
-----4------------4-----0----|---------------------9--------|---------9-----------9--11----|--------9------------9-------|
---------------------0-------|-----4-----------9------------|-----9------------9-----------|-----9-----------9-----------|
--0---------0----------------|--0--------0------------------|--9---------9-----------------|--9--------9-----------------|

                                                    
  E  E  E  E  E  E  E  E       E  E  E  E  E  E  E  E       E  S S E  E  E  E  E  E       E  E  E  E  E  E  E  E  E  
----------------------------|-----------5--------9-------|-------9---------------------|-----------------------0-----|
--------------7-----0-------|--5-----------7-----0-------|--12--------9----------------|--------------5--------------|
--------4--6-----------6----|--------4--------------6----|---------------11----11-9----|--4-----4--6--------4--------|
--0--4-----------4-----0----|-----4-----------4-----0----|---------9--11-------9-------|-----4-----------4-----------|
--------------------0-------|--------------------0-------|-----9------------9----------|-----------------------------|
--0--------0----------------|--0--------0----------------|--9--------------------------|--4--------4-----------------|

							    Da Coda                        ^
  E  E  E  E  E  S E  S E       E  E  E  E  E  S E  S E       E  E  E  E  E  E  E  E       Q.     Q.     Q    
--2--------0-------4----5----|--4--------2--4----5----4----|--4-----------------4--2----|--2------------------|
--------3-----7--------------|--------5--2-----------------|--------------2--------2----|--2------------------|
-----2--2-------------4------|-----4--4-------------4------|-----------2--------2-------|--2------------------|
-----4-----------4-----------|-----4-----------4-----------|--------4--------4----------|---------------------|
-----------------------------|-----------------------------|-----4----------------------|---------------------|
--0--------0-----------------|--2--------2-----------------|--4--------4----------------|--4------4------4----|

~~~~~~~
Part 2
~~~~~~~
  ^				^	    ^		      ^				   ^	       ^
  E  E  E  E  E  E  E  E        E  E  E  E  E  E  E  E        E  E  E  E  E  E  E  E       E  E  E  E  E  E  E  E                    
-----------------------------|--------------0--------------|--4-------------------------|--5-----------4-------------|
--------------7-----0--------|--------------------0--------|--5-----------7-------------|--7-----------5-----5-------|
--4-----4--6-----------6-----|--4-----4--6--7--------6-----|--4-----4--6--------4--6----|--------4--6-----------6----|
--4--4-----------4-----0-----|--4--4--------7--4-----0-----|-----4-----------4-----4----|-----4-----------4-----4----|
--5-----------------0--------|--5-----------------0--------|--------------------4-------|--------------------4-------|
--0--------0-----------------|--0--------0-----------------|--4--------4----------------|--4--------4----------------|

  ^					    ^     ^	      ^  	  ^		   ^		    ^
  E  E  E  E  E  E  E  E        E  E  E  E  E  E  E  E        E  E  E  E  E  E  E  E       E  E  E  E  Q    E  E                    
--------------2--------------|--0-----------------0--------|----------------------------|---------------------------|
--2--------2--------0--2-----|--------------------0--------|--0-----0--2-----------2----|---------------------------|
--2-----4--------------------|--------4--6--4--------6-----|--1-----------2-----2-------|-----------4---------------|
-----4-----------4-----0-----|-----4--------4--4-----0-----|-----4--------4--4----------|--6--4--7-----4----2s-4----|
--------------------0--------|--------------5-----0--------|--------------4-------------|--7-----------4----2s-4----|
--0--------0-----------------|--0--------0-----------------|--4-------------------------|--4----------------2s-4----|
						       ^ 		       ^
  				^	    ^		      ^				   ^	       ^
  E  E  E  E  E  E  E  E        E  E  E  E  E  E  E  E        E  E  E  E  E  E  E  E       E  E  E  E  E  E  E  E                    
--------------2--------------|--------------0--------------|--4-------------------------|--5-----------4-------------|
-----------2--------0--------|--------------------0--------|--5-----------7-------------|--7-----------5-----5-------|
--------4--------------6-----|--4-----4--6--7--------6-----|--4-----4--6--------4--6----|--------4--6-----------6----|
--0--4-----------4-----0-----|--4--4--------7--4-----0-----|-----4-----------4-----4----|-----4-----------4-----4----|
--------------------0--------|--5-----------------0--------|--------------------4-------|--------------------4-------|
--0--------0-----------------|--0--------0-----------------|--4--------4----------------|--4--------4----------------|

  ^					    ^  		      ^  	  ^		   		    
  E  E  E  E  E  E  E  E        E  E  E  E  E  E  E  E        E  E  E  E  E  E  E  E       E  E  E  E  E  E  E  E                    
--------------2--------------|--0-----------0--------------|--2-------------------------|---------------------------|
--2--------2--------0--2-----|-----------2--0-----0--2-----|--2--------2-----------0----|---------------------------|
--2-----4--------------------|--------4-----1--------------|--2-----2-----------2-------|-----------0--------0------|
-----4-----------4-----0-----|-----4-----------4-----------|-----4-----------4----------|--------2--------------2---|
--------------------0--------|-----------------------------|----------------------------|-----2-----------4---------|
--0--------0-----------------|--0--------0--2--------2-----|--4-----------4-------------|--2-----------0------------|

                                                    							      D.S. al Coda
  E  S S E  E  E  E  E  E       E  S S E  E  E  E  E  E       E  S S E  E  E  E  E  E       E  S S E  E  E  E  E  E
---------------2-------------|--0------------2-------------|-----------------------------|-----------------------------|
------------2--------0--2----|------------2--------0--2----|---------------7-------------|--5------------7--------2----|
---------4-------------------|---------4-------------------|---------4--6--------4--6----|---------4--6--------4-------|
-----4------------4-----0----|-----4------------4-----0----|-----4------------4-----4----|-----4------------4----------|
--5------------------0-------|---------------------0-------|--4------------------4-------|-----------------------------|
--0----0----0----------------|--0----0----0----------------|--4----4----4----------------|--4----4----4--------2-------|

~~~
                                                     
 Coda														
  Q    S S S S S S S S S S S S       W       W 
----------------------------------|--2----|--2----||
-------------------------2---2----|-------|--2----||
-------------------4---4---4------|-------|--4----||
-------------4---4---4------------|-------|--4----||
-------5---5---5------------------|-------|--5----||
--0------0------------------------|-------|--0----||


Legend
W - whole note
H - half note
Q - quarter note
E - eighth note
S - sixteenth note

s - slide
v - brush up
^ - brush down
Login or Register to remove this ad.

2 comments on Corridors Of Time

Amazing. I loved the bass

5

Amazing. I loved the bass line, I think that's the best arrangenment of this song so far. Thanks for sharing!

Thank you so much!

Thank you so much!